Song name
# A B C D E F G H I J K L M N O P Q R S T U V W X Y Z

Fm Static - Hey Now tab

Hey Now by FM Static
intro part only though
this is my first tab so bear with me
by: Kublai Khan

Standard Tuning EADGBE

e|-------------------------------------------------------------------|
b|-------------------------------------------------------------------|
g|-------------------------------------------------------------------|
d|-------------------------------------------------------------------|
a|--1---1---5---1---5s8---8---8s10---8---1---5---1---6---6---5---5---|
e|-------------------------------------------------------------------|

e|-------------------------------------------------------------------|
b|-------------------------------------------------------------------|
g|-------------------------------------------------------------------|
d|-------------------------------------------------------------------|
a|--1---1---5---1---5s8---8---8s10---8---1---5---1---6---6---5h6p5---|
e|-------------------------------------------------------------------|

or you can play it with a capo at 1

e|-------------------------------------------------------------------|
b|-------------------------------------------------------------------|
g|-------------------------------------------------------------------|
d|-------------------------------------------------------------------|
a|--0---0---4---0---4s7---7---7s9---7---0---4---0---5---5---4---4----|
e|-------------------------------------------------------------------|

e|-------------------------------------------------------------------|
b|-------------------------------------------------------------------|
g|-------------------------------------------------------------------|
d|-------------------------------------------------------------------|
a|--0---0---4---0---4s7---7---7s9---7---0---4---0---5---5---4h5p4----|
e|-------------------------------------------------------------------|
Tap to rate this tab
# A B C D E F G H I J K L M N O P Q R S T U V W X Y Z