Song name
# A B C D E F G H I J K L M N O P Q R S T U V W X Y Z

Fm Static - Waste Of Time tab

-----------------------------------------------------------------------------
			     Waste of Time - FM Static
-----------------------------------------------------------------------------
Tabbed by: Jeremy2142
Email: jeremy2142@yahoo.com
Tuning: EADGBe

This tab isnt 100% accurate, but it sounds close enough.
This can be a good start to those who want to play this song,
Listen to the song to get the timing.

Guitar 1: Light Distortion
Guitar 2: Distortion
Guitar 3: Distortion

Intro x2
Verse x2
Pre-Chorus x1
Chorus x1
Verse x2
Pre-Chorus x1
Chorus x1
Bridge x1
Chorus/Outro x1

~Intro/Verse~
Guitar 1: Light Distortion
e|--------------------------------------------------------------------------|
B|--------------------------------------------------------------------------|
G|---4-4444-4444-4444-444--6-6666-666---------------------------------------|
D|---4-4444-4444-4444-444--6-6666-666--555-xx-444-xx------------------------|
A|---2-2222-2222-2222-222--4-4444-444--555-xx-444-xx------------------------|
E|-------------------------------------333-xx-222-xx------------------------|

Guitar 2: Distortion
e|--------------------------------------------------------------------------|
B|--------------------------------------------------------------------------|
G|---4~--------6~-----------------------------------------------------------|
D|---4~---7~---6~---555--444------------------------------------------------|
A|---2~---7~---4~---555--444------------------------------------------------|
E|--------5~--------333--222------------------------------------------------|

~Pre Chorus~
Guitar 1: Light Distortion
e|--------------------------------------------------------------------------|
B|--------------------------------------------------------------------------|
G|---4-4444----------------------4-4444-444--------------6-6666-666---------|
D|---4-4444--6-6666--7777--9999--4-4444-444--7-7777-777--6-6666-666---------|
A|---2-2222--6-6666--7777--9999--2-2222-222--7-7777-777--4-4444-444---------|
E|-----------4-4444--5555--7777--------------5-5555-555---------------------|

e|--------------------------------------------------------------------------|
B|--------------------------------------------------------------------------|
G|--------------------------------------------------------------------------|
D|---555-xx-444-------------------------------------------------------------|
A|---555-xx-444-------------------------------------------------------------|
E|---333-xx-222-------------------------------------------------------------|

Guitar 2: Distortion
e|--------------------------------------------------------------------------|
B|--------------------------------------------------------------------------|
G|---4-4444----------------------4-4444-444--------------6-6666-666---------|
D|---4-4444--6-6666--7777--9999--4-4444-444--7-7777-777--6-6666-666---------|
A|---2-2222--6-6666--7777--9999--2-2222-222--7-7777-777--4-4444-444---------|
E|-----------4-4444--5555--7777--------------5-5555-555---------------------|

e|--------------------------------------------------------------------------|
B|--------------------------------------------------------------------------|
G|--------------------------------------------------------------------------|
D|---555-xx-444-------------------------------------------------------------|
A|---555-xx-444-------------------------------------------------------------|
E|---333-xx-222-------------------------------------------------------------|

~Chorus~
Guitar 2: Distortion
e|--------------------------------------------------------------------------|
B|--------------------------------------------------------------------------|
G|---4~----------------4~------6~-------------------------------------------|
D|---4~--4~--7~--4~----4~--7~--6~--55--77-----------------------------------|
A|---2~--4~--7~--4~----2~--7~--4~--55--77-----------------------------------|
E|-------2~--5~--2~--------5~------33--55-----------------------------------|

Guitar 3: Distortion
e|--------------------------------------------------------------------------|
B|---12----------12----------12-------------12------------------------------|
G|-----11-9-8------11-9-8------11-9-8---------11-9-8------------------------|
D|------------9-----------9-----------9-11~----------9/11/13~-\9~-----------|
A|--------------------------------------------------------------------------|
E|--------------------------------------------------------------------------|

Or you can do it on the lower frets

e|---7---------7---------7--------------7-----------------------------------|
B|----7-5-4-0---7-5-4-0---7-5-4-0--------7-5-4-0----------------------------|
G|--------------------------------6/8~-----------6/8~-\4~-------------------|
D|--------------------------------------------------------------------------|
A|--------------------------------------------------------------------------|
E|--------------------------------------------------------------------------|

~Verse~
Guitar 1: Light Distortion
e|--------------------------------------------------------------------------|
B|--------------------------------------------------------------------------|
G|---4-4444-4444-4444-444--6-6666-666---------------------------------------|
D|---4-4444-4444-4444-444--6-6666-666--55-x-44------------------------------|
A|---2-2222-2222-2222-222--4-4444-444--55-x-44------------------------------|
E|-------------------------------------33-x-22------------------------------|

Guitar 2: Distortion
e|--------------------------------------------------------------------------|
B|--------------------------------------------------------------------------|
G|---4~--------6~-----------------------------------------------------------|
D|---4~---7~---6~---55-x-44-------------------------------------------------|
A|---2~---7~---4~---55-x-44-------------------------------------------------|
E|--------5~--------33-x-22-------------------------------------------------|

~Pre Chorus~
Guitar 1: Light Distortion
e|--------------------------------------------------------------------------|
B|--------------------------------------------------------------------------|
G|---4-4444----------------------4-4444-444--------------6-6666-666---------|
D|---4-4444--6-6666--7777--9999--4-4444-444--7-7777-777--6-6666-666---------|
A|---2-2222--6-6666--7777--9999--2-2222-222--7-7777-777--4-4444-444---------|
E|-----------4-4444--5555--7777--------------5-5555-555---------------------|

e|--------------------------------------------------------------------------|
B|--------------------------------------------------------------------------|
G|--------------------------------------------------------------------------|
D|---55-x-44----------------------------------------------------------------|
A|---55-x-44----------------------------------------------------------------|
E|---33-x-22----------------------------------------------------------------|

Guitar 2: Distortion
e|--------------------------------------------------------------------------|
B|--------------------------------------------------------------------------|
G|---4-4444----------------------4-4444-444--------------6-6666-666---------|
D|---4-4444--6-6666--7777--9999--4-4444-444--7-7777-777--6-6666-666---------|
A|---2-2222--6-6666--7777--9999--2-2222-222--7-7777-777--4-4444-444---------|
E|-----------4-4444--5555--7777--------------5-5555-555---------------------|

e|--------------------------------------------------------------------------|
B|--------------------------------------------------------------------------|
G|--------------------------------------------------------------------------|
D|---55-x-44----------------------------------------------------------------|
A|---55-x-44----------------------------------------------------------------|
E|---33-x-22----------------------------------------------------------------|

~Chorus~
Guitar 2: Distortion
e|--------------------------------------------------------------------------|
B|--------------------------------------------------------------------------|
G|---4~----------------4~------6~-------------------------------------------|
D|---4~--4~--7~--4~----4~--7~--6~--55--77-----------------------------------|
A|---2~--4~--7~--4~----2~--7~--4~--55--77-----------------------------------|
E|-------2~--5~--2~--------5~------33--55-----------------------------------|

Guitar 3: Distortion
e|--------------------------------------------------------------------------|
B|---12----------12----------12-------------12------------------------------|
G|-----11-9-8------11-9-8------11-9-8---------11-9-8------------------------|
D|------------9~----------9~----------9-11~----------9/11/13~-\9~-----------|
A|--------------------------------------------------------------------------|
E|--------------------------------------------------------------------------|

Or..

e|---7---------7---------7--------------7-----------------------------------|
B|----7-5-4-0---7-5-4-0---7-5-4-0--------7-5-4-0----------------------------|
G|--------------------------------6/8~-----------6/8~-\4~-------------------|
D|--------------------------------------------------------------------------|
A|--------------------------------------------------------------------------|
E|--------------------------------------------------------------------------|

~Bridge~
Guitar 2:
e|--------------------------------------------------------------------------|
B|--------------------------------------------------------------------------|
G|---4444----------------4444-----------------------------------------------|
D|---4444-4444-6666-4444-4444-4444-6666-4444--xx----------------------------|
A|---2224-4444-6666-4444-2222-4444-6666-4444--xx----------------------------|
E|--------2222-4444-2222------2222-4444-2222--xx----------------------------|

e|--------------------------------------------------------------------------|
B|--------------------------------------------------------------------------|
G|---4444----------------4444-----------------------------------------------|
D|---4444-4444-6666-4444-4444-4444-6666-6666-4444-4444-xx-------------------|
A|---2224-4444-6666-4444-2222-4444-6666-6666-4444-4444-xx-------------------|
E|--------2222-4444-2222------2222-4444-4444-2222-2222-xx-------------------|

Guitar 3:
e|--------------------------------------------------------------------------|
B|--------------------------------------------------------------------------|
G|---4-4444-----------------------4-4444----------------9-8-6---------------|
D|---x-xxxx-4-4444-6-6666-4-4444--x-xxxx-4-4444-6-6666--x-x-x---------------|
A|---2-2222-x-xxxx-x-xxxx-x-xxxx--2-2222-x-xxxx-x-xxxx--7-6-4---------------|
E|----------2-2222-4-4444-2-2222---------2-2222-4-4444----------------------|

e|--------------------------------------------------------------------------|
B|--------------------------------------------------------------------------|
G|---4-4444-----------------------4-4444------------------------------------|
D|---x-xxxx-4-4444-6-6666-4-4444--x-xxxx-4-4444-6-6666-6-6666-4-4444-4444-xx|
A|---2-2222-x-xxxx-x-xxxx-x-xxxx--2-2222-x-xxxx-x-xxxx-x-xxxx-x-xxxx-xxxx-xx|
E|----------2-2222-4-4444-2-2222---------2-2222-4-4444-4-4444-2-2222-2222-xx|

~Chorus/Outro~
Guitar 2: Distortion
e|--------------------------------------------------------------------------|
B|--------------------------------------------------------------------------|
G|---4~----------------4~------6~-------------------------------------------|
D|---4~--4~--7~--4~----4~--7~--6~--5--7-5-7-9-------------------------------|
A|---2~--4~--7~--4~----2~--7~--4~--5--7-5-7-9-------------------------------|
E|-------2~--5~--2~--------5~------3--5-3-5-7-------------------------------|

Guitar 3: Distortion
e|--------------------------------------------------------------------------|
B|---12----------12----------12-------------12------------------------------|
G|-----11-9-8------11-9-8------11-9-8---------11-9-8------------------------|
D|------------9~----------9~----------9-11~----------9/11/13~-\9~-----------|
A|--------------------------------------------------------------------------|
E|--------------------------------------------------------------------------|

Or..

e|---7---------7---------7--------------7-----------------------------------|
B|----7-5-4-0---7-5-4-0---7-5-4-0--------7-5-4-0----------------------------|
G|--------------------------------6/8~-----------6/8~-\4~-------------------|
D|--------------------------------------------------------------------------|
A|--------------------------------------------------------------------------|
E|--------------------------------------------------------------------------|


| /  slide up
| \  slide down
| ~  let it ring
| x  Mute note

Lyrics:

This troubled heartache
won't go away
I think there might be
something wrong with me
I take a deep breath and maybe
I'll stop this shaking
God please don't forsake me
I might be crazy

Am I losing my mind?
Sometimes I feel like
things are getting worse in time
If I try will you open my eyes?
And make me a part of you
like you're a friend of mine

Next time I'm losing my mind
I'll remember that to find my way out
is just a waste of time
In place of all my mistakes
You've seen through the shadows above me
No one could ever love me like you

If I finish what I started
and get swept under the carpet
I'll still be thankful for all you've done
Take a note to remind me
that you know where you can find me
I'll probably end up right back here again

Am I losing my mind?
Sometimes I feel like
things are getting worse in time
If I try will you open my eyes?
And make me a part of you
like you're a friend of mine

Next time I'm losing my mind
I'll remember that to find my way out
is just a waste of time
In place of all my mistakes
seen through the shadows above me
No one could ever love...

I'll be everything that you want me to
except for perfect
I'm trying hard just to understand
your plan for me
I'll be everywhere that you want me to
unless I fall
I'm just trying to get my life back again

Next time I'm losing my mind
I'll remember that to find my way out
is just a waste of time
In place of all my mistakes
You've seen through the shadows above me
No one could ever love me...

Next time I'm losing my mind
I'll remember that to find my way out
is just a waste of time
In place of all my mistakes
You've seen through the shadows above me
No one could ever love me like you 
=============================================================================
Tap to rate this tab
 
# A B C D E F G H I J K L M N O P Q R S T U V W X Y Z