Song name
# A B C D E F G H I J K L M N O P Q R S T U V W X Y Z

Fm Static - Boy Moves To A New Town With Optimistic Outlook tab

Hey, this is my very first tab, and I think it is right.

Tuning: Standard

Solo:

E:-----------------------------------------------------------------------------|
B:7-7-7-7-7-7-7/11-9-7-7-7-7-7-7-7-7/11-9-7-7-7-7-7-7-7-7/11-9-7-7-7-7-9-------|
G:-----6--------------------6--------------------6--------------------6--------|
D:-----------------------------------------------------------------------------|
A:-----------------------------------------------------------------------------|
E:-----------------------------------------------------------------------------|

After the solo ends, it ends like this
E:------------------:
B:------------------:
G:-6---8---6---8----:
D:-6-6-8---6-6-8----:
A:-4-6-6---4-6-6----:
E:---4-------4------:


Enjoy!!!!!!!!
Tap to rate this tab
 
# A B C D E F G H I J K L M N O P Q R S T U V W X Y Z