Song name
# A B C D E F G H I J K L M N O P Q R S T U V W X Y Z

Fm Static - The Unavoidable Battle Of Feeling On The Outside tab

Hey fellow guitarists, its me submitting a new tab. This is from their new album Dear 
(as heard on Power FM). This is one of their best songs so far, that is why I made this 
This is my work just like all of my others. So please leave credit if you move it around.

Lead Guitar

E||--------------------------------------|
B||--------------------------------------|
G||--12-11-12-14-12-11-12-14-12-11-12-14-|
D||--------------------------------------|
A||--------------------------------------|
D||--------------------------------------|


--------------------------------------|
--------------------------------------|
--12-11-12-14-12-11-12-14-12-11-12-14-|
--------------------------------------|
--------------------------------------|
--------------------------------------|


-------------||
-------------||
--12-11------||
--------12---||
-------------||
-------------||

Repeat all of this once


--------------------------------------------------|
--------------------------------------------------|
--12-12-12-12-11-11-11-11-------------------------|
--------------------------12-12-12-12-10-10-10-10-|
--------------------------------------------------|
--------------------------------------------------|


-----------------------------------------|
-----------------------------------------|
--12-12-12-12-11-11-11-11----------------|
--------------------------12-12-12-12----|
-----------------------------------------|
-----------------------------------------|

Rhythm Guitar

This happens right after the intro solo, so you could do it on only one guitar.

A||----------------------------|
D||----6--6--------6-6--6-6----|

----------------------------|
----9--9--------9-9--9-9----|                     x2

---------------------------|
----6-6-6-6-9-9-9-9--------|

------------------------------------------|
-----9-9-9-9-9-6-3-1-----9-9-9-9-9-6-3-1--|

"Take your time...."
-----------------------------|
----6------------------------|
 Let Ring

"Peace of mind..."
-----------------------------|
----9------------------------|
 Let Ring


The solo part is basically the end of the lead intro part just with bends,  And some 
octaves.
Tap to rate this tab
# A B C D E F G H I J K L M N O P Q R S T U V W X Y Z