Song name
# A B C D E F G H I J K L M N O P Q R S T U V W X Y Z

Fm Static - The Shindig Off To College tab

Help us improve GuitareTab! Take a short survey!
-------------------------------------------------------------------------------
                     The Shindig (Off To College) - FM Static
-------------------------------------------------------------------------------
Tabbed by: pips_911
Email:	pips_911@yahoo.com

Tuning: Standard

Verse 1:
e|-----------------------------------------------|
B|-----------------------------------------------|
G|-----------------------------------------------|
D|--------------77777777---44444444---99999999---| 
A|---77777777---55555555---22222222---77777777---|
E|---55555555------------------------------------|
PM   ........   ........   ........   ........

e|----------------------------------------|
B|----------------------------------------|
G|------------------------------------9---|
D|--------------77777777---44444444---9---| 
A|---77777777---55555555---22222222---7---|
E|---55555555-----------------------------|
PM   ........   ........   ........   

e|-------------------------------------------|
B|-------------------------------------------|
G|-------------7-7-7-7---4-4-4-4---9-9-9-9---|
D|---7-7-7-7---7-7-7-7---4-4-4-4---9-9-9-9---| 
A|---7-7-7-7---5-5-5-5---2-2-2-2---7-7-7-7---|
E|---5-5-5-5---------------------------------|

e|-------------------------------------------|
B|-------------------------------------------|
G|-------------7-7-7-7---4-4-4-4---9-9-9-9---|
D|---7-7-7-7---7-7-7-7---4-4-4-4---9-9-9-9---| 
A|---7-7-7-7---5-5-5-5---2-2-2-2---7-7-7-7---|
E|---5-5-5-5---------------------------------|

e|--------------|
B|--------------|
G|---9-9-9-9----|
D|---9-9-9-9----|
A|---7-7-7-7----|
E|--------------|

Chorus: *just figure out the simple strumming

e|-------------------------------------------|
B|-------------------------------------------|
G|-------------7-7-7-7---4-4-4-4-------------|
D|---7-7-7-7---7-7-7-7---4-4-4-4---2-2-2-2---| 
A|---7-7-7-7---5-5-5-5---2-2-2-2---2-2-2-2---|
E|---5-5-5-5-----------------------0-0-0-0---|

e|----------------------------------|
B|----------------------------------|
G|----------------------------------|
D|-----------------------------xx---| 
A|---6h7-7-7-7---6h7-7-7-7-7---xx---|
E|---4h5-5-5-5---4h5-5-5-5-5---xx---|

Verse 2: (same as Verse 1)
Chorus

Solo 1:
Guitar 1
e|-----------------------------------|
B|-----------------------------------|
G|--------6-4--------------6-4-------|
D|---/777-----7-4-2---/777------7~---|
A|-----------------------------------|
E|-----------------------------------|

e|-------------------------------------|
B|-------------------------------------|
G|--------6-4-------------2-4--2-4-2---|
D|---/777-----7-4-2---2-4--------------|
A|-------------------------------------|
E|-------------------------------------|


Guitar 2
e|-----------------------------------------------|
B|-----------------------------------------------|
G|-----------------------------------------------|
D|--------------77777777---44444444---99999999---| 
A|---77777777---55555555---22222222---77777777---|
E|---55555555------------------------------------|
PM   ........   ........   ........   ........

e|------------------------------------00--00---|
B|------------------------------------00--00---|
G|------------------------------------11--11---|
D|--------------77777777---44444444---22--22---| 
A|---77777777---55555555---22222222---22--22---|
E|---55555555-------------------------00--00---|
PM   ........   ........   ........   


Solo 2: *(with Guitar 3)
Guitar 1
e|-----------------------------------|
B|-----------------------------------|
G|--------6-4--------------6-4-------|
D|---/777-----7-4-2---/777------7~---|
A|-----------------------------------|
E|-----------------------------------|

e|-----------------------------------|
B|-----------------------------------|
G|--------6-4-------------2-4--242---|
D|---/777-----7-4-2---2-4------------|
A|-----------------------------------|
E|-----------------------------------|

Guitar 2
e|-----------------------------------------------|
B|-----------------------------------------------|
G|-----------------------------------------------|
D|--------------77777777---44444444---99999999---| 
A|---77777777---55555555---22222222---77777777---|
E|---55555555------------------------------------|
PM   ........   ........   ........   ........

e|------------------------------------00--00---|
B|------------------------------------00--00---|
G|------------------------------------11--11---|
D|--------------77777777---44444444---22--22---| 
A|---77777777---55555555---22222222---22--22---|
E|---55555555-------------------------00--00---|
PM   ........   ........   ........   

Guitar 3*
e|--------7----7----7----7----7-----------7---|
B|-----10---10---10---10---10---10-----10-----|
G|---9-------------------------------9--------|
D|--------------------------------------------|
A|--------------------------------------------|
E|--------------------------------------------|

e|--------7----7----7----7----7-----------7---|
B|-----10---10---10---10---10---10------------|
G|---9-------------------------------9--------|
D|--------------------------------------------|
A|--------------------------------------------|
E|--------------------------------------------|

e|--------7----7----7----7----7-----------7---|
B|-----10---10---10---10---10---10-----10-----|
G|---9-------------------------------9--------|
D|--------------------------------------------|
A|--------------------------------------------|
E|--------------------------------------------|

e|--------7----7----7----7----7---------------|
B|-----10---10---10---10---10---10~-----------|
G|---9----------------------------------------|
D|--------------------------------------------|
A|--------------------------------------------|
E|--------------------------------------------|

Breakdown: (just follow the words)
e|---xxxxxxx---|
B|---xxxxxxx---|
G|---xxxxxxx---|
D|---xxxxxxx---|
A|---xxxxxxx---|
E|---xxxxxxx---|

Chorus

Last Chorus:
e|-------------------------------------------|
B|-------------------------------------------|
G|-------------7-7-7-7---4-4-4-4-------------|
D|---7-7-7-7---7-7-7-7---4-4-4-4---2-2-2-2---| 
A|---7-7-7-7---5-5-5-5---2-2-2-2---2-2-2-2---|
E|---5-5-5-5-----------------------0-0-0-0---|

e|-----------------------|
B|-----------------------|
G|-----------------7-7---|
D|---7-7-7-7---2-2-7-7---| 
A|---7-7-7-7---2-2-5-5---|
E|---5-5-5-5---0-0-------|

e|----------------------------------|
B|----------------------------------|
G|----------------------------------|
D|-----------------------------xx---| 2x
A|---6h7-7-7-7---6h7-7-7-7-7---xx---|
E|---4h5-5-5-5---4h5-5-5-5-5---xx---|



===============================================================================

Related for The Shindig Off To College tab