Song name
# A B C D E F G H I J K L M N O P Q R S T U V W X Y Z

Fm Static - Boy Meets Girl And Vice Versa tab

Help us improve GuitareTab! Take a short survey!
-------------------------------------------------------------------------------
                    Boy Meets Girl (And Vice Versa - FM Static
-------------------------------------------------------------------------------
Tabbed by: pips_911
Email: pips_911@yahoo.com

Tuning: Drop D

Verse 1: (guitar comes in second part of verse)
e|------------------------|
B|------------------------|
G|------------------------|
D|---00--033--355--5753---| 3x
A|---00--033--355--5753---|
D|---00--033--355--5753---|
PM   ..  ...  ...  ....

e|------------------|
B|------------------|
G|------------------|
D|---00--033--355---|
A|---00--033--355---|
D|---00--033--355---|
PM   ..  ...  ...  

Chorus:
e|-------------------------------------------------------|
B|-------------------------------------------------------|
G|-------------------------------------------------------|
D|---0-00--0-00--3-33--3-33--5-55--5-55------------------| 2x
A|---0-00--0-00--3-33--3-33--5-55--5-55----------3-------|
D|---0-00--0-00--3-33--3-33--5-55--5-55--0-3-5-7---3-0---|

Guitar 2 enters at second part
e|-------------------------------------------------------------|
B|-------------------------------------------------------------|
G|---6b-6b-6b-6b6b--9b-9b9b--9b-9b9b--11b-11b11b--11b-11b11b---|
D|-------------------------------------------------------------|
A|-------------------------------------------------------------|
D|-------------------------------------------------------------|

Verse 2: (same as Verse 1)
Chorus

Breakdown:
e|-----------------------|
B|-----------------------|
G|---7--5-7--5-7--7-10---|
D|-----------------------|
A|-----------------------|
D|-----------------------|

e|-----------------------------------|
B|-----------------------------------|
G|---10-12--10-12--10-12--14-10-10---|
D|-----------------------------------|
A|-----------------------------------|
D|-----------------------------------|

e|-----------------------|
B|-----------------------|
G|---7--5-7--5-7--7-10---|
D|-----------------------|
A|-----------------------|
D|-----------------------|

e|-----------------------------------|
B|-----------------------------------|
G|---10-12--10-12--10-12--14-10-10---|
D|-----------------------------------|
A|-----------------------------------|
D|-----------------------------------|

Chorus

===============================================================================

Related for Boy Meets Girl And Vice Versa tab