Song name
# A B C D E F G H I J K L M N O P Q R S T U V W X Y Z

Fm Static - Boy Moves To A New Town With Optimistic Outlook tab

Hey!

I'm Chino, from the Philippines! This is my first tabbed song of Fm static. This 
is not 100% accurate, but its close enough.

Please rate and don't be rude. I'm only 14 years old...


 (Acoustic)

In the first verse, keep repeating the chords.

  Woke up...   so many..     It' been a ...        Everything's ok
e|------------------------------------------------------------------|
B|------------------------------------------------------------------|
G|--------------------------------------------------5---------------|
D|-5------------5------------2----------------------5---------------|
A|-5------------5------------2----------------------3---------------|
E|-3------------3------------0--------------------------------------|

(electric guitar comes in here, keep on strumming)

 first day..   What it...    everyday I'm...       right here..
e|------------------------------------------------------------------|
B|------------------------------------------------------------------|
G|--------------------------------------------------5---------------|
D|-5------------5------------2----------------------5---------------|
A|-5------------5------------2----------------------3---------------|
E|-3------------3------------0--------------------------------------|

Refrain:
 and all this time, while the world passes us by what will we
 e|-----------------------------------------------------------|
 B|-----------------------------------------------------------|
 G|---5----------7--------------------------------------------|
 D|--5-5--------7-7-------------5----------------2------------|
 A|-3----------5---------------5-5--------------2-2-----------|
 E|---------------------------3----------------0--------------|

   Leave     behind but the   pages   of our   lives  and if we
 e|-----------------------------------------------------------|
 B|-----------------------------------------------------------|
 G|---5----------7--------------------------------------------|
 D|--5-5--------7-7-----------5-5-5-5----------2-2-2-2--------|
 A|-3----------5--------------5-5-5-5----------2-2-2-2--------|
 E|---------------------------3-3-3-3----------0-0-0-0--------|

   Take our time ,I bet we can all find the things in life worth living for
 e|-------------------------------------------------------------------------|
 B|-------------------------------------------------------------------------|
 G|-5-5-5-5-7-7-7-7-----------------------------------5-----------------7---|
 D|-5-5-5-5-7-7-7-7-5-5-5-5--------2-2-2-2------------5-----------------7---|
 A|-3-3-3-3-5-5-5-5-5-5-5-5--------2-2-2-2------------3-----------------5---|
 E|-----------------3-3-3-3--------0-0-0-0----------------------------------|


Chorus:
  One..   Know..  life's.. Slow..   Here on.. own..   you...   help..
 e|-----------------------------------------------------------------------|
 B|-----------------------------------------------------------------------|
 G|-5-5-5------------------7-7-7-7---5-5-5-5-----------7-7-7-7--9-9-9-9---|
 D|-5-5-5-5-5-5-5-2-2-2-2--7-7-7-7---5-5-5-5--5-5-5-5--7-7-7-7--9-9-9-9---|
 A|-3-3-3-5-5-5-5-2-2-2-2--5-5-5-5---3-3-3-3--5-5-5-5--5-5-5-5--7-7-7-7---|
 E|-------3-3-3-3-0-0-0-0---------------------3-3-3-3---------------------|

   I'm .. A long.. Mountains.. Apathy   I'm ..  Afraid    through            
 e|--------------------------------------------------------------|
 B|--------------------------------------------------------------|
 G|-5-5-5--------------------7-7-7-7---5-5-5-5-------------7-----|
 D|-5-5-5-5-5-5-5--2-2-2-2---7-7-7-7---5-5-5-5--5-5-5-5----7-----|
 A|-3-3-3-5-5-5-5--2-2-2-2---5-5-5-5---3-3-3-3--5-5-5-5----5-----|
 E|-------3-3-3-3--0-0-0-0----------------------3-3-3-3----------|


Riff 1
 e|----------------------------------------------------------------|
 B|----------------------------------------------------------------|
 G|--------------------------------------------------------5-4-----|
 D|--5-5-5---5-5-5---5-5-5---5-5-5---5-5-5---5-5-5---5-5-5-5-4-----|(2x)
 A|--5-5-5---5-5-5---5-5-5---5-5-5---5-5-5---5-5-5---5-5-5-3-2-----|
 E|--3-3-3---3-3-3---3-3-3---3-3-3---3-3-3---3-3-3---3-3-3---------|

In the second verse, simply follow the tab above.It's just the same.Then repeat 
refrain and chorus.

Bridge:
   Fading....     hating......     Waiting..        For some...              
 e|----------------------------------------------------------------|
 B|----------------------------------------------------------------|
 G|-5-5-5-5-5-5-5-5-7-7-7-7-7-7-7-7-9-9-9-9-9-9-9-9----------------|
 D|-5-5-5-5-5-5-5-5-7-7-7-7-7-7-7-7-9-9-9-9-9-9-9-9-5-5-5-5-5-5-5-5|
 A|-3-3-3-3-3-3-3-3-5-5-5-5-5-5-5-5-7-7-7-7-7-7-7-7-5-5-5-5-5-5-5-5|
 E|-------------------------------------------------3-3-3-3-3-3-3-3|

   Show me..  Grow..    Hold..   Till' my..
 e|-------------------------------------|
 B|-------------------------------------|
 G|-5-5-5-----7-7-7-----9-9-9-----------|
 D|-5-5-5-----7-7-7-----9-9-9-----5-5-5-|
 A|-3-3-3-----5-5-5-----7-7-7-----5-5-5-|
 E|-------------------------------3-3-3-|

 Fading....     hating......     Waiting..        For some...              
 e|----------------------------------------------------------------|
 B|----------------------------------------------------------------|
 G|-5-5-5-5-5-5-5-5-7-7-7-7-7-7-7-7-9-9-9-9-9-9-9-9----------------|
 D|-5-5-5-5-5-5-5-5-7-7-7-7-7-7-7-7-9-9-9-9-9-9-9-9-5-5-5-5-5-5-5-5|
 A|-3-3-3-3-3-3-3-3-5-5-5-5-5-5-5-5-7-7-7-7-7-7-7-7-5-5-5-5-5-5-5-5|
 E|-------------------------------------------------3-3-3-3-3-3-3-3|

 Show me..        Grow..        Hold..      Till' my..
 e|----------------------------------------------------|
 B|----------------------------------------------------|
 G|---5---5--------7---7---------9---9-----------------|
 D|--5-5-5-5------7-7-7-7-------9-9-9-9------5---5-----|
 A|-3---3--------5----5--------7---7--------5-5-5-5----|
 E|----------------------------------------3---3-------|

(repeat refrain)
(repeat chorus)

solo:

E|--------------------------------------------------------------------------|
B|8-8-8-8-8-8-8/12-10-8-8-8-8-8-8-8-8/12-10-8-8-8-8-8-8-8-8-12-10-8-8-8-8-10|
G|-----6---------------------7---------------------7---------------------7--|
D|--------------------------------------------------------------------------|
A|--------------------------------------------------------------------------|
E|--------------------------------------------------------------------------|

The last part:
E|-----------|
B|-----------|
G|-5-----7---|(2x)
D|-5--5--7---|
A|-3--5--5---|
E|----3------|

well.. that's it! hope you enjoy and please rate..!
Tap to rate this tab
# A B C D E F G H I J K L M N O P Q R S T U V W X Y Z