Song name
# A B C D E F G H I J K L M N O P Q R S T U V W X Y Z

Fm Static - All The Days tab

Main Riff used for intro/post-chorus and other parts of song
e-------------------|
b-------------------|
g-3---3-------------|
d-3-3-3-3-5-5-5-5-3-|  4x
a-1-3-1-3-5-5-5-5-3-|
e---1---1-3-3-3-3-1-|

verse 1   palm mute
e-------------------------------------|
b-------------------------------------|
g-3-3-3-3-3-3-3-3-3-3-3-3-3-3---------|
d-3-3-3-3-3-3-3-3-3-3-3-3-3-3-5-5-3-3-|
a-1-1-1-1-1-1-1-1-1-1-1-1-1-1-5-5-3-3-|
e-----------------------------3-3-1-1-|

chorus (rhythm)
e-------------------------------------------------|
b-------------------------------------------------|
g-3-3-3-3-3-3-------------------------------------|
d-3-3-3-3-3-3-3-3-3-3-3-3-5-5-5-5-5-5-3-3-3-3-3-3-|
a-1-1-1-1-1-1-3-3-3-3-3-3-5-5-5-5-5-5-3-3-3-3-3-3-|
e-------------1-1-1-1-1-1-3-3-3-3-3-3-1-1-1-1-1-1-|

lead
e-------6----|
b-----6---6--|
g-7h8--------| repeat
d------------|
a------------|
e------------|

2nd verse  (Palm mute)
e------------------------|
b------------------------|
g-3-3----3---------------|
d-3-3-3--3-3--5-5--5-5-3-|
a-1-1-3--1-3--5-5--5-5-3-|
e-----1----1--3-3--3-3-1-|

lead
e------------------------|
b------------------------|
g------------------------|
d------------------------|
a-5-5----5---------------|
e-----6----6--3-3--3-3-1-|

Outro Solo
e-------------18-------------------18-------|
b-15h16p15-------16p15-15h16p15-------16p15-| repeat several times
g----------18-------------------18----------|
d-------------------------------------------|
a-------------------------------------------|
e-------------------------------------------|

e-18-17-15-13-11-10-8s10--13-10-----|
b-------------------------------11~-|
g-----------------------------------|
d-----------------------------------|
a-----------------------------------|
e-----------------------------------|

rhythm end on
e----
b----
g-8~-
d-8~-
a-6~-
e----
Tap to rate this tab
 
# A B C D E F G H I J K L M N O P Q R S T U V W X Y Z