Song name
# A B C D E F G H I J K L M N O P Q R S T U V W X Y Z

Fm Static - Man Watcha Doin tab

Man watcha doin'?
artist: Fm static
tuning: EADGBe
tabbed by Ferdz Tobats



chords: E-A-F#-B VERSE/CHORUS

Bass:
G|---------------|
D|---------------|
A|-----------22--|
E|--00-55-22-----|

chorus: lead 

e|---13-------------------------------|
B|-------13--15--13--10---------------|
G|-----------------------12---10h12---|
D|------------------------------------|
A|------------------------------------|
E|------------------------------------|

e|---13-------------------------------|
B|-------13--15--13--10---------------|
G|-----------------------12--10-12-10-|
D|------------------------------------|
A|------------------------------------|
E|------------------------------------|

e|---13-------------------------------|
B|-------13--15--13--10---------------|
G|-----------------------12---10h12---|
D|------------------------------------|
A|------------------------------------|
E|------------------------------------|

e|---13-------------------------------|
B|-------13--15--13--10---------------|
G|----------------------12--10-12-10b-|
D|------------------------------------|
A|------------------------------------|
E|------------------------------------|


ending: keyboard

lyrics:

I heard this guy say once:

If I had the money than Iíd,
Buy all the happiness that money could buy,
Iíd have 10 stretch limos like a movie star,
And a room in my house just for my guitar
And if I had money than Iíd,
Only wear Sean John,
Eat my cereal with Grey Poupon,
In a swimming pool about one mile long,
With speakers underwater,
Playing this song

Man, whatcha doin?
Donít ya know that, money canít
Buy you love? It canít make you happy,
Happy like, haviní someone to laugh with
Man whatcha doin?
Donít cha know that, money canít make it right,
You need to love yourself my man,
Before you love somebody else

Man, sit down, and listen to me for a second,
Iím not tryiní to be the sound of a broken record,
But every day you live your life, thinkiní this is
[ FM Static Lyrics are found on www.songlyrics.com ] 
All there is, your cheatiní yourself outta
Somethiní specialÖ.no doubt...

He said:

If I had the money than Iíd,
Buy all the happiness that money could buy,
Iíd have 10 stretch limos like a movie star,
And a room in my house just for my guitar
And if I had money than Iíd,
Only wear Sean John,
Eat my cereal with Louie Vuitton,
In a swimming pool about one mile long,
With speakers underwater,
Playing this song

Man, whatcha doin?
Donít ya know that, money canít
Buy you love? It canít make you happy,
Happy like, haviní someone to laugh with
Man whatcha doin?
Donít cha know that, money canít make it right,
You need to love yourself my man,
Before you love somebody else


Tap to rate this tab
 
# A B C D E F G H I J K L M N O P Q R S T U V W X Y Z