Song name
# A B C D E F G H I J K L M N O P Q R S T U V W X Y Z

Fm Static - Man Watcha Doin tab

-----------------------------------------------------------------------------
			     Man Watcha Doin? - FM Static
-----------------------------------------------------------------------------
Tabbed by: Luke
Email: I_am_Billiam@yahoo.com

This is the piano and guitar parts.  Regarding piano tabs: 
Number on the side means the octave you're on, the letter 
is the note. Capital letter means sharp.

Also, none of the notes in this song should be sustained very long
aside from the one at the end of the chorus.

Tuning: Standard

Piano Part:
5|--------------------------------------------------------------|
4|--------------------------------------------------------------|
3|-e-e-------a-a-------F-F-------b-b----------------------------|
2|-e-e-------a-a-------F-F-------b-b----------------------------|

And the feedback starts at 0:20 and guitar comes in at 0:24

Chorus
E|-----12-------------------------------------------------------|
B|--------12-----14-12------------------------------------------|
G|-------------------------13-11-----9-11-----------------------|
D|-2-2-------7-7-------4-4-------9-9----------------------------|
A|-2-2-------7-7-------4-4-------9-9----------------------------|
E|-0-0-------5-5-------2-2-------7-7----------------------------|x3

E|-----12-------------------------------------------------------|
B|--------12-----14-12------------------------------------------|
G|-------------------------13-11-----9-11-9-This last note is---|
D|-2-2-------7-7-------4-4-------9-9--------held for a long time|
A|-2-2-------7-7-------4-4-------9-9--------and even into the---|
E|-0-0-------5-5-------2-2-------7-7--------next part, so you --|
                                            may want to split it
                                            up into two parts. 
Interlude - 0:45
e|--------------------------------------------------------------|
B|--------------------------------------------------------------|
G|--------------------------------------------------------------|
D|--------------------------------------------------------------|
A|--------------------------------------------------------------|
E|-0-0-------5-5-------2-2-------7-7----------------------------|x4

Verse - 1:07
e|----------------------------------This should be played with a|
B|----------------------------------lot of distortion and palm -|
G|----------------------------------muted-----------------------|
D|-2-2-------7-7-------4-4-------9-9----------------------------|
A|-2-2-------7-7-------4-4-------9-9----------------------------|
E|-0-0-------5-5-------2-2-------7-7----------------------------|x4

Chorus - 1:29
E|-----12-------------------------------------------------------|
B|--------12-----14-12------------------------------------------|
G|-------------------------13-11-----9-11-----------------------|
D|-2-2-------7-7-------4-4-------9-9----------------------------|
A|-2-2-------7-7-------4-4-------9-9----------------------------|
E|-0-0-------5-5-------2-2-------7-7----------------------------|x3

E|-----12-------------------------------------------------------|
B|--------12-----14-12------------------------------------------|
G|-------------------------13-11-----9-11-9-Not held out this---|
D|-2-2-------7-7-------4-4-------9-9--------time----------------|
A|-2-2-------7-7-------4-4-------9-9----------------------------|
E|-0-0-------5-5-------2-2-------7-7----------------------------|

Piano Ending
5|-----e-------C------------------------------------------|
4|-------b-------b-----G-F-----e-F------------------------|
2|-b-b-----e-e-----C-C-----F-F----------------------------|
2|-e-e-----a-a-----F-F-----b-b----------------------------|

5|-----e-------C------------------------------------------|
4|-------b-------b-----G-F-----e-F-e----------------------|
3|-e-e-----a-a-----F-F-----b-b-----e----------------------|
2|-e-e-----a-a-----F-F-----b-b-----e----------------------|



P.S. I haven't checked, but the bass part is probably similar to
the "Interlude" part up top. If you have any questions feel free
to email me.
Tap to rate this tab
 
# A B C D E F G H I J K L M N O P Q R S T U V W X Y Z