Song name
# A B C D E F G H I J K L M N O P Q R S T U V W X Y Z

Fm Static - Hey Now tab

Hey Now by Fm Static
tabbed by Ferdz Tobats
email/facebook-tobatsdrive@yahoo.com

para po eto kay jen, pati narin sa mga pinoy emo rockers!!!

guitar 1 only 

intro:

E|--------------------------------------------|
B|--------------------------------------------|
G|--------------------------------------------|
D|------4---4s7-7-7s9-7-----4---4h5-5-4-4-----|
A|--5-5---5---------------5---5---------------|
E|----------------------7---------------------|

E|--------------------------------------------|
B|--------------------------------------------|
G|--------------------------------------------|
D|------4---4s7-7-7s9-7-----4---4h5-4-4h5-4---|
A|--5-5---5---------------5---5---------------|
E|----------------------7---------------------|


verse 1 - 4
               2x
E|----222---222----222-------------|
B|----333---333----333-------------|
G|----222---222----444----222------|
D|--0-000---xxx----xxx----222------|
A|---------4-----2------0----------|
E|---------------------------------|      4x

E|----222---222----222----------------|
B|----333---333----333----------------|
G|----222---222----444----------------|
D|--0-000---xxx----xxx----0-2-0h2-0---|
A|---------4-----2------0-------------|
E|------------------------------------|

pre chorus: power chords
E|-----------------------------------------|
B|-----------------------------------------|
G|-----------------------------------------|
D|----7--------7--------4-------2----------|
A|----5(8X)----5(8X)----2(8X)---0(8X)------|
E|-----------------------------------------|

E|-----------------------------------------|
B|-----------------------------------------|
G|-----------------------------------------|
D|----7--------7--------4------------------|
A|----5(8X)----5(8X)----2(8X)---5(8x)------|
E|------------------------------3----------|


Chorus:
D                  F#m                   
and instantly i feel so complete
        Bm                       A
it hits me right about the time you kiss my cheek
      D
and you give me this feeling
       F#m
its like no other feeling
       Bm               G......
but it knocks me off my feet

                         A
please dont ask me what i like about you
          D     F#m    Bm        A
cause its every little thing you do
    G              A             D F#m Bm A   D F#m Bm A
and thats just the way you make me feel


verse:
e|---------5----------------------------------------|
B|-----------5------3----------3---------3-3-3------|
G|-------7--------2---2------2---2-----2------------|
D|-----7--------------------------------------------| 
A|---5----------4---------2---------0------0--------|
E|--------------------------------------------------|

e|-------2-2--------------------------------------|
B|--------3--------3----------3--------3---3------|
G|-----2----------2--2-2----2---2----2---2--------|
D|---0--------------------------------------------| 
A|-------------4---------2--------0---------------|
E|------------------------------------------------|

pre-chorus: palm mute (power chords)
e|-----------------------------|
B|-----------------------------|
G|-----------------------------|
D|---7-----7-----4-----3-------|x3
A|---5(8x)-4(8x)-2(8x)-1(8x)---|
E|-----------------------------|

e|-----------------------------|
B|-----------------------------|
G|-----------------------------|
D|---7-----7-----4-----4-------|x3
A|---5(8x)-4(8x)-2(8x)-1-------|
E|-----------------------------|

Chorus:
D                    F#m
and instantly i feel so complete
           Bm                       A
it hits me right about the time you kiss my cheek
        D           
and you give me this feeling
         F#m
its like no other feeling
       G
but it knocks me off my feet

G                          A
please dont ask me what i like about you
          D     F#m    Bm        A   G
cause its every little thing you do
                   A             D F#m Bm A  D F#m Bm A
and thats just the way you make me feel

G             A           
you can never ask for too much
         D          F#m        Bm           A         G
cause id travel the world just to feel your touch and
               A               
thats just the way you make me feel

D F#m Bm A (3X)

ending: D            
Tap to rate this tab
# A B C D E F G H I J K L M N O P Q R S T U V W X Y Z