Song name
# A B C D E F G H I J K L M N O P Q R S T U V W X Y Z

Fm Static - Christmas Shoes tab

Christmas Shoes 
Fm Static
tabbed by ferdz Tobats
it's not 100% accurate...

instrumental:
e|------------------------------------------------------------|
B|------------------------------------------------------------|
G|------------------------------------------------------------|
D|------------------------------------------------------------|
A|-----7--5s4------------5s4------55-5s4---------5s4----------|
E|--5----------7--5--7-7-----7-5---------7-5-7-7------7--5----|

e|------------------------------------------------------------|
B|------------------------------------------------------------|
G|------------------------------------------------------------|
D|------------------------------------------------------------|
A|-----7--5s4------------5s4------55-5s4-------4--------------|
E|--5----------7--5--7-7-----7-5---------7-5-7-----7--5-5-----|
                                           
                                           
Tap to rate this tab
# A B C D E F G H I J K L M N O P Q R S T U V W X Y Z