Song name
# A B C D E F G H I J K L M N O P Q R S T U V W X Y Z

Fm Static - Tonight tab

Tonight by Fm Static
capo 1
tabbed by: don tobats
email: tobatsdrive@yahoo.com

special thanks po sa emofaith band pra sa jamming tym napagbigyan din sa wakas... 
hehehe danda ng bahista nyo, sana sakin nlang xa magpaturo.. pati kay mark, 
churchm8 ko na nagpahiram ng capo

try nyo lang to walang mawawala


intro:
e|--0---2---0---------0--2--0------|
B|--------3---3---2---3------------|
G|--------------2---2--------------|
D|--0-0-----0----------------------|
A|---------------------------------|
E|--------------------3------------|

e|--0---2---0----------s3--2--0----|
B|--------3---3-----3--------------|
G|--------------2---2--------------|
D|--0-0-----0-----0----------------|
A|---------------------------------|
E|---------------------------------|

guitar 2: or keyboard
e|--------0------------------------|
B|------3---3---------------3------|
G|----2-------2---2-------2--------|2x
D|--0-----------0-------0----------|
A|---------------------------------|
E|--------------------3------------|

verse 1:
e|--------0------------------------|
B|------3---3---------------3------|
G|----2-------2---2-------2--------|2x
D|--0-----------0-------0----------|
A|---------------------------------|
E|--------------------3------------|

e|--0--2-0---------0--2--0---------|
B|--3------3-3-3-------------------|
G|---------------------------------|
D|---------------------------------|
A|---------------------------------|
E|--0--------------3---------------|

e|--0--2-0--------s3--2--0---------|
B|--3------3-3-3-------------------|
G|---------------------------------|
D|---------------------------------|
A|---------------------------------|
E|--0------------------------------|


play before verse 2
guitar 1:
e|--0---2---0---------0--2--0------|
B|--------3---3---2---3------------|
G|--------------2---2--------------|
D|--0-0-----0----------------------|
A|---------------------------------|
E|--------------------3------------|

guitar 2:
e|--------0------------------------|
B|------3---3---------------3------|
G|----2-------2---2-------2--------|
D|--0-----------0-------0----------|
A|---------------------------------|
E|--------------------3------------|

verse2:

e|--0-2-0---------0--2--0----------|
B|--------3---3--------------------|
G|----------2----------------------|
D|--0------------------------------|
A|---------------------------------|
E|----------------3----------------|

e|--0-2-0----------s3-2-0----------|
B|--------3---3--------------------|
G|----------2----------------------|
D|---------------------------------|
A|--2------------------------------|
E|---------------------------------|

e|--0-2-0----------0-2-0-----------|
B|--------3-3-3--------------------|
G|---------------------------------|
D|---------------------------------|
A|-----------------0---------------|
E|--0------------------------------|

chorus: D Bm G A  D G A Bm 2x
play before verse 3
e|--------0------------------------|
B|------3---3---------------3------|
G|----2-------2---2-------2--------|
D|--0-----------0-------0----------|
A|---------------------------------|
E|--------------------3------------|

verse 3:
e|--0---2---0---------0--2--0------|
B|--------3---3---2---3------------|
G|--------------2---2--------------|
D|--0-0-----0----------------------|
A|---------------------------------|
E|--------------------3------------|   
                                             
e|--0---2---0----------s3--2--0----|
B|--------3---3-----3--------------|
G|--------------2---2--------------|
D|--0-0-----0-----0----------------|
A|---------------------------------|
E|---------------------------------|

e|--0---2---0---------0--2--0------|
B|--------3---3---2---3------------|
G|--------------2---2--------------|
D|--0-0-----0----------------------|
A|---------------------------------|
E|--------------------3------------|   
                                             
e|--0---2---0----------s3--2--0----|
B|--------3---3-----3--------------|
G|--------------2---2--------------|
D|--0-0-----0-----0----------------|
A|---------------------------------|
E|---------------------------------|

e|--0---2---0---------0--2--0------|
B|--------3---3---2---3------------|
G|--------------2---2--------------|
D|--0-0-----0----------------------|
A|---------------------------------|
E|--------------------3------------|   
                                             
e|--0---2---0----------s3--2--0----|
B|--------3---3-----3--------------|
G|--------------2---2--------------|
D|----------0-----0----------------|
A|--2------------------------------|
E|---------------------------------|

e|--0-2-0----------0-2-0-----------|
B|--------3-3-3----3---------------|
G|---------------------------------|
D|---------------------------------|
A|-----------------0---------------|
E|--0------------------------------|

chorus: D Bm G A  D G A Bm 2x

interlude:
e|--------0------------------------|
B|--3---3---3---------------3------|
G|----2-------2---2-------2--------|  2x
D|--0-------------------0----------|
A|---------------------------------|
E|--------------------3------------|

e|--0-2-0----------0-2-0-----------|
B|--------3-3-3--------------------|
G|---------------------------------|
D|---------------------------------|
A|-----------------0---------------|
E|--0------------------------------|

chorus: D Bm G A  D G A Bm 2x

ending part:
e|--------0~------------------------|
B|------3----3---------------3------|
G|----2--------2-----------2--------|  2x
D|--0------------0-------0----------|
A|----------------------------------|
E|---------------------3------------|


Tap to rate this tab
 
# A B C D E F G H I J K L M N O P Q R S T U V W X Y Z