Song name
# A B C D E F G H I J K L M N O P Q R S T U V W X Y Z

Fm Static - Flop Culture tab

Standard
intro/verse Rhythm
e------------------------------------------------------------|
b------------------------------------------------------------|
g----5-5-5-5-5-------7-7-7-7-7-----5-5-5-5-5-------7-7-7-7-7-|
d-5--5-5-5-5-5--5-5--7-7-7-7-7--5--5-5-5-5-5--7-7--7-7-7-7-7-|
a-5--3-3-3-3-3--5-5--5-5-5-5-5--5--3-3-3-3-3--7-7--5-5-5-5-5-|
e-3-------------3-3-------------3-------------5-5------------|

for end of intro and end part of verse
(some effect)
e-------------|
b-------------|
g-------------|
d-5-5-5-5-5-5-|
a-------------|
e-------------|

Lead Verse
e-------------------------------------------------------------|
b-------------------------------------------------------------|
g-------------------------------------------------------------|
d-5-5-7-8-9-9-9---5-5-7-7-5-5---5-5-7-8-9-9-9-10/9-9-7-7-5-5--|
a-------------------------------------------------------------|
e-------------------------------------------------------------|

Chorus
Rhythm
e--------------------------------------------------------------------|
b--------------------------------------------------------------------|
g---------7-7-7-7-5-5-5-5-------------------4-4-4-4-5-5-5-5----------|
d-5-5-5-5-7-7-7-7-5-5-5-5-5--5-5-5--5-5-5-5-4-4-4-4-5-5-5-5-5-5-5-5--|
a-5-5-5-5-5-5-5-5-3-3-3-3-5--5-5-5--5-5-5-5-2-2-2-2-3-3-3-3-5-5-5-5--|
e-3-3-3-3-----------------3--3-3-3--3-3-3-3-----------------3-3-3-3--|

e-------------------------------------------------------|
b-------------------------------------------------------|
g---------7-7-7-7-5-5-5-5-------------------4-4-4-4-----|
d-5-5-5-5-7-7-7-7-5-5-5-5-5--5-5-5--5-5-5-5-4-4-4-4-3~--|
a-5-5-5-5-5-5-5-5-3-3-3-3-5--5-5-5--5-5-5-5-2-2-2-2-3~--|
e-3-3-3-3-----------------3--3-3-3--3-3-3-3---------1~--|

Lead
e---------------------10~-|
b-12-13-12-10-------------|
g---------------12--------|
d------------------12-----|
a-------------------------|
e-------------------------|

Chorus 2 Variation
Rhythm
e------------------------------------------------------|
b------------------------------------------------------|
g---------7-7-7-7-5-5-5-5-------------7~-5-5-5---------|
d-5-5-5-5-7-7-7-7-5-5-5-5-5-5-5-5--5~-7~-5-5-5-5-5-5-5-|
a-5-5-5-5-5-5-5-5-3-3-3-3-5-5-5-5--5~-5~-3-3-3-5-5-5-5-|
e-3-3-3-3-----------------3-3-3-3--3~----------3-3-3-3-|

Lead
e------------------------------8-8-7~-|
b-8-8--7-7-----------8-8-10-10--------|
g----------9-9-9-7~-------------------|
d-------------------------------------|
a-------------------------------------|
e-------------------------------------|
Bridge
e---------------------------------|
b---------------------------------|
g-5-5-5-5-5-5-5-5-----------------| 3x
d-5-5-5-5-5-5-5-5-7-7-7-7-7-7-7-7-|
a-3-3-3-3-3-3-3-3-7-7-7-7-7-7-7-7-|
e-----------------5-5-5-5-5-5-5-5-|

e-------------|
b-------------|
g-5~--7~--5~--|
d-5~--7~--5~--|
a-3~--5~--3~--|
e-------------|

Solo
Lead
e------------------------------------------------------------------|
b------------------------------------------------------------------|
g------------------------------------------------------------------|
d-5--7/9-10-9-7/5-7-7--7/9/7-5---5--7/9-10-9-7/5--7-7--7/9-10-9-7--|
a------------------------------------------------------------------|
e------------------------------------------------------------------|

Rhythm
e-------------------------------------------------|
b-------------------------------------------------|
g----5-5-------------------5-5--------------------|
d-5--5-5--7-7--7/9/7-5--5--5-5--7-7--7/9/10/9-7---|
a-5--3-3--7-7--7/9/7-5--5--3-3--7-7--7/9/10/9-7---|
e-3-------5-5--5/7/5-3--3-------5-5--5/7/-8/7-5---|

Post Bridge (effect)
e-------------|
b-------------|
g-------------|
d-5-5-5-5-5-5-|
a-------------|
e-------------|

e-----------|
b-----------|
g-----------|
d-7-7-7-8-9-|
a-----------|
e-----------|

e------------------------------------------------------------|
b------------------------------------------12-12-12-12-12-12-|
g------------------------------------------------------------|
d-5-5-7-8-9-9-9--5-5-7-7-5-5--5-5-7-7-8-9--------------------|
a------------------------------------------------------------|
e------------------------------------------------------------|

Chorus 1
Chorus 2
Solo Thing in last Chorus 2
e-----------10--7-6------|
b----10--12---------10-8-|
g-12---------------------|
d------------------------|
a------------------------|
e------------------------|

Bridge
2nd Bridge
e-------------------------------------------------|
b-------------------------------------------------|
g-------------7--7--7--7--------------5--5--5--5--|
d-5--5--5--5--7--7--7--7--7--7--7--7--5--5--5--5--|
a-5--5--5--5--5--5--5--5--7--7--7--7--3--3--3--3--|
e-3--3--3--3--------------5--5--5--5--------------|

e------------------------------------------|
b------------------------------------------|
g-------------7--7--7--7--------------5--5-|
d-5--5--5--5--7--7--7--7--7--7--7--7--5--5-|
a-5--5--5--5--5--5--5--5--7--7--7--7--3--3-|
e-3--3--3--3--------------5--5--5--5-------|

Acoustic Part
  G   D   C
e-3~--2~--0~-----------------------------------|
b-3~--3~--1~-- then ---11b-11b-11b-11b-11b-11b-|
g-0~--2~--0~-----------------------------------|
d-0~--0~--2~-----------------------------------|
a-2~--0~--3~-----------------------------------|
e-3~------0~-----------------------------------|
Tap to rate this tab
# A B C D E F G H I J K L M N O P Q R S T U V W X Y Z