Song name
# A B C D E F G H I J K L M N O P Q R S T U V W X Y Z

Fm Static - Boy Meets Girl And Vice Versa tab

Song: Boy Meets Girl (and Vice Versa)
Artist: FM Static
Transcribed: leftyluke7
Tuning: Drop D

Verse: 
There is no guitar but the bass guitar is so high that the guitar can play it in 
the same octave. So here’s the bass part.
G|------------------------|
D|------------------------| 
A|------------------------|
D|---00--355--355--3573---|

G|------------------------|
D|------------------------| 
A|------------------------|
D|---00--355--355--3750---|

G|------------------------|
D|------------------------| 
A|------------------------|
D|---00--355--355--3573---|

G|------------------------|
D|------------------------| 
A|------------------------|
D|---00--355--355---------|

Pre-Chorus:
e|------------------------|
B|------------------------|
G|------------------------|
D|---00--355--355--3573---| 
A|---00--355--355--3573---|
D|---00--355--355--3573---|
   PM..  ...  ...  ....

e|------------------------|
B|------------------------|
G|------------------------|
D|---00--355--355--3750---| 
A|---00--355--355--3750---|
D|---00--355--355--3750---|
   PM..  ...  ...  ....

e|------------------------|
B|------------------------|
G|------------------------|
D|---00--355--355--3573---| 
A|---00--355--355--3573---|
D|---00--355--355--3573---|
   PM..  ...  ...  ....

e|------------------------|
B|------------------------|
G|------------------------|
D|---00--355--355---------| 
A|---00--355--355---------|
D|---00--355--355---------|
   PM..  ...  ...

Chorus:
Guitar 1
e|----------------------------------------|
B|----------------------------------------|
G|----------------------------------------|
D|---0-00--0-00--3-33--3-33--5-55--5-55---| 
A|---0-00--0-00--3-33--3-33--5-55--5-55---|
D|---0-00--0-00--3-33--3-33--5-55--5-55---|

e|------------------------------------|
B|------------------------------------|
G|------------------------------------|
D|------------------------------------| x2 (play the whole chorus twice)
A|---------0-3--------------0-3-------|
D|---0-3-5-----5-3----0-3-5-----5-3---|

Guitar 2
Guitar 2 starts playing after guitar 1 has played the chorus once
(This is at the same rhythm as guitar 1)
e|-----------------------------------------------------------------------|
B|-----------------------------------------------------------------------|
G|---------------------------9^-9^h9r-9^-9^h9r-11^-11^h11r-11^-11^h11r---|
D|---11^-11^h11r-11^-11^h11r---------------------------------------------|
A|-----------------------------------------------------------------------|
D|-----------------------------------------------------------------------|

Pre-verse:
This is the bass guitar again
G|------------------------|
D|------------------------| 
A|------------------------|
D|---00--355--355--3573---|

G|------------------------|
D|------------------------| 
A|------------------------|
D|---00--355--355--3750---|

Verse

Chorus

Bridge
e|--------------------------------------------------------------|
B|--------------------------------------------------------------|
G|------------------------10-10-10-12--10-12--10-12--14-10-10---|
D|---12--10-12--10-12--12---------------------------------------|x2
A|--------------------------------------------------------------|
D|--------------------------------------------------------------|

Chorus
There is a very faint 3rd guitar (it could be a keyboard) in this chorus
e|----------------------------------------------------------|
B|----------------------------------------------------------|
G|------------14~---------14~12~~~~~~~~---------------------|
D|---12~~~~~~~---12~~~~~~~----------------------------------|x2 
A|----------------------------------------------------------|
D|----------------------------------------------------------|

Key:
PM... = Palm Mute
^     = ½ step bend
h     = hold the bend right before the “h” and then play the all following notes 
in the held position until you see “r.”
r     = release
~     = hold note (let ring)

That’s it!!! Thank you so much and please rate this tab.
Tap to rate this tab
 
# A B C D E F G H I J K L M N O P Q R S T U V W X Y Z