Song name
# A B C D E F G H I J K L M N O P Q R S T U V W X Y Z

Fm Static - Sometimes You Can Forget Who You Are tab

Artist: FM Static
Song: Sometimes You Can Forget Who You Are
Album: Dear Diary
Year: 2009
Tabbed by: NewDesign

Not sure why no one's bothered to tab this song yet - it's so cool.

~ = Let ring
/ = slide down

Intro:
E|-----------------------------|
B|-----------------------------|
G|-----5------------7------10--|
D|---5------5-----7-----10-----| x2
A|-3------5-----5-----8--------|
E|------3----------------------|

Verse:
E|----------------------------------------------|
B|----------------------------------------------|
G|-5-5-5-5-------------7-7-7-7---10-10-10-10/---|
D|-5-5-5-5---5-5-5-5---5-5-5-5---10-10-10-10/---| x4
A|-3-3-3-3---5-5-5-5---5-5-5-5---8--8--8--8-/---|
E|-----------3-3-3-3----------------------------|

Riff:
E|-------------------|
B|-------------------|
G|-------------------|
D|-3~3~3~3-3--5~-----|
A|-3~3~3~3-3--5~-----|
E|-1~1~1~1-1--3~-----|

Chorus: 
E|-----------------------------------------------------------------|
B|-----------------------------------------------------------------|
G|-5-5-5-5-5-5-5-5-------------------------------------------------|
D|-5-5-5-5-5-5-5-5---5-5-5-5-5-5-5-5---3-3-3-3--3-3---7-7-7-7--5-5-|x2
A|-3-3-3-3-3-3-3-3---5-5-5-5-5-5-5-5---3-3-3-3--3-3---7-7-7-7--5-5-|
E|-------------------3-3-3-3-3-3-3-3---1-1-1-1--1-1---5-5-5-5--3-3-|

Riff

Post-chorus riff:
E|-----------------------------|
B|-----------------------------|
G|-5~5-------------------------|
D|-5~5---3-3--3-3--3---7--7----|x2
A|-3~3---3-3--3-3--3---7--5----|
E|-------1-1--1-1--1---5--3----|

Verse x6
Riff
Chorus x2
Riff

Bridge part 1:
E|--------------------------|
B|--------------------------|
G|-5-5----------------------|
D|-5-5---5-5---3-3--3-5-5---|x2
A|-3-3---5-5---3-3--3-5-5---|
E|-------3-3---1-1--1-3-3---|

Bridge part 2:
E|-----------------------------------------------------------|
B|-----------------------------------------------------------|
G|-5-5-------------------------------------------------------|
D|-5-5---5-5---3-3--3-5-5---7-7-7-7-7-7-7-7--8-8-8~~---------|
A|-3-3---5-5---3-3--3-5-5---7-7-7-7-7-7-7-7--8-8-8~~---------|
E|-------3-3---1-1--1-3-3---5-5-5-5-5-5-5-5--6-6-6~~---------|

Chorus (minus the first chord)
Chorus (normal)
Riff
Post-chorus riff x2

And that's it!
Tap to rate this tab
 
# A B C D E F G H I J K L M N O P Q R S T U V W X Y Z