Song name
# A B C D E F G H I J K L M N O P Q R S T U V W X Y Z

Fm Static - Voyage Of Beliefs tab

Title: The Voyage of Beliefs
Artist: FM Static
Tabbed by: Wil Harding

	 Lead guitar: Intro and Verse
|----3---3---3---3---3---3---3-3---|
|------3---------------3-----------|
|--0-------0---2---0-------0---2---|
|----------------------------------|
|----------------------------------|
|----------------------------------|
I have 2 brothers and a sister, and a mother, And a father who taught us that we should
love one another,
We go to church on Sunday, In a little green hyundai, Have some grape juice and
Then we start again on Monday
|----3---3---3---3---3---3---3-3---|
|------3---------------3-----------|
|--0-------0---2---0-------0---2~--|
|----------------------------------|
|----------------------------------|
|----------------------------------|
And it's all fine, and it's all well, I really want to find what I believe for myself,
'Cause when you're gone, And I'm still here, I won't have you to tell me that I should 
there

	Lead guitar: Prechorus
|----------------------------------|
|----------------------------------|
|-5-5-5-5---------7-7-7-7-7-7-7-7--|
|-5-5-5-5-5-5-5-5-7-7-7-7-7-7-7-7--|
|-3-3-3-3-5-5-5-5-5-5-5-5-5-5-5-5--|
|---------3-3-3-3------------------|
I'm tired of making excuses (oh oh oh),
Need to decide for myself...
|-------------------|
|-------------------|
|-5-5-5-5---------7-|
|-5-5-5-5-5-5-5-5-7-|
|-3-3-3-3-5-5-5-5-5-|
|---------3-3-3-3---|

	Lead guitar: Chorus
|-3-3-3-3-3-3-5-5-3-3-3-3-3-3-5-5--|
|----------------------------------|
|----------------------------------|
|----------------------------------|
|----------------------------------|
|----------------------------------|
What if I stumble? What if I fall? When I'm on my way to You,
What if I need You? Who do I call? How do I know I'll get through?
Because I don't wanna ride the fence anymore. I wanna stand up, and shout it, And let it 
known
|---5--5--5-8-7------3---3---3--5---|
|--3--3--3----------3-3-3-3-3-3-----|
|-0--0--0----------0---0---0--------|
|-----------------------------------|
|-----------------------------------|
|-----------------------------------|

	Rhythm guitar: chorus
|----------------------------------|
|----------------------------------|
|--------5-5-----------7-7x7 ------|
|-2-2----5-5----5-5----7-7x7-------|
|-2-2----3-3----5-5----5-5x5-------|
|-0-0-----------3-3----------------|

|----------------------------------|
|----------------------------------|
|--------5-5-----------7-7x7 ------|
|-2-2----5-5----5-5----7-7x7-------|
|-2-2----3-3----5-5----5-5x5-------|
|-0-0-----------3-3----------------|

|--------------------------------------|
|--------------------------------------|
|----------5-5-5-5-----------7-7-7-7---|
|-2-2-2-2--5-5-5-5--5-5-5-5--7-7-7-7---|
|-2-2-2-2--3-3-3-3--5-5-5-5--5-5-5-5---|
|-0-0-0-0-----------3-3-3-3------------|

|------------------------|
|------------------------|
|--------5-5-----------7-|
|-2-2----5-5----5-5----7-|
|-2-2----3-3----5-5----5-|
|-0-0-----------3-3------|

	Lead guitar verse 2
|-------------------------------|
|-------------------------------|
|-0---7-----------0---7---------|
|---------5---7-----------5---7-|
|-------------------------------|
|-------------------------------|
I have 2 fathers, and a sister and a brother, And a mother who taught us that we should
do unto others,
My homeroom teacher, always talks about her preacher And she says she talks to God, But
don't know if I believe her
|----3---3---3---3---3---3---3---3-|
|------3---------------3-----------|
|--0-------0---2---0-------0---2---|
|----------------------------------|
|----------------------------------|
|----------------------------------|
And it's all fine, and it's all well, I really want to find what I believe for myself,
'Cause when you're gone,
And I'm still here, I won't have you to tell me that I should be there

	Lead guitar: Prechorus
|----------------------------------|
|----------------------------------|
|-5-5-5-5---------7-7-7-7-7-7-7-7--|
|-5-5-5-5-5-5-5-5-7-7-7-7-7-7-7-7--|
|-3-3-3-3-5-5-5-5-5-5-5-5-5-5-5-5--|
|---------3-3-3-3------------------|
I'm tired of making excuses (oh oh oh),
Need to decide for myself...
|-------------------|
|-------------------|
|-5-5-5-5---------7-|
|-5-5-5-5-5-5-5-5-7-|
|-3-3-3-3-5-5-5-5-5-|
|---------3-3-3-3---|

	Lead guitar: Chorus
|-3-3-3-3-3-3-5-5-3-3-3-3-3-3-5-5--|
|----------------------------------|
|----------------------------------|
|----------------------------------|
|----------------------------------|
|----------------------------------|
What if I stumble? What if I fall? When I'm on my way to You,
What if I need You? Who do I call? How do I know I'll get through?
Because I don't wanna ride the fence anymore.
I wanna stand up, and shout it, And let it be known
|---5--5--5-8-7------3---3---3--5---|
|--3--3--3----------3-3-3-3-3-3-----|
|-0--0--0----------0---0---0--------|
|-----------------------------------|
|-----------------------------------|
|-----------------------------------|

	Lead guitar: Bridge
|----------------------------------|
|----------------------------------|
|----------------------------------|
|-5-5-5-5--------------------------|
|---------3-3-3-3-2-0-2/5-5-5-5-5--|
|----------------------------------|	x4
And you can tell me, That I can't make a difference 'cause I'm just one, But one is all 
to start it
And you can tell me, That I can't change the world,
Because I'm too young, But I won't stand here and be your target
And you can push me, And try to knock me down, but I won't listen, 'Cause I've got
left to lose and,
You can hate me, for everything I'm not, But it won't change this, 'Cause now that I'm
I'm not moving
	Rhythm guitar: Bridge
|----------------------------------|
|----------------------------------|
|--0-0-0-0-7-7-7-7-----------------|
|------------------5-4-5/7-7-7-7-7-|
|----------------------------------|
|----------------------------------|

	Lead guitar: Prechorus
|----------------------------------|
|----------------------------------|
|-5-5-5-5---------7-7-7-7-7-7-7-7--|
|-5-5-5-5-5-5-5-5-7-7-7-7-7-7-7-7--|
|-3-3-3-3-5-5-5-5-5-5-5-5-5-5-5-5--|
|---------3-3-3-3------------------|
I'm tired of making excuses (oh oh oh),
Need to decide for myself...
|-------------------|
|-------------------|
|-5-5-5-5---------7-|
|-5-5-5-5-5-5-5-5-7-|
|-3-3-3-3-5-5-5-5-5-|
|---------3-3-3-3---|

	Lead guitar: Chorus
|-3-3-3-3-3-3-5-5-3-3-3-3-3-3-5-5--|
|----------------------------------|
|----------------------------------|
|----------------------------------|
|----------------------------------|
|----------------------------------|
What if I stumble? What if I fall? When I'm on my way to You,
What if I need You? Who do I call? How do I know I'll get through? Because I don't wanna
the fence anymore.
I wanna stand up, and shout it, And let it be known
|---5--5--5-8-7------3---3---3--5---|
|--3--3--3----------3-3-3-3-3-3-----|
|-0--0--0----------0---0---0--------|
|-----------------------------------|
|-----------------------------------|
|-----------------------------------|
	Rhythm guitar: chorus
|----------------------------------|
|----------------------------------|
|--------5-5-----------7-7x7 ------|
|-2-2----5-5----5-5----7-7x7-------|
|-2-2----3-3----5-5----5-5x5-------|
|-0-0-----------3-3----------------|

|----------------------------------|
|----------------------------------|
|--------5-5-----------7-7x7 ------|
|-2-2----5-5----5-5----7-7x7-------|
|-2-2----3-3----5-5----5-5x5-------|
|-0-0-----------3-3----------------|

|--------------------------------------|
|--------------------------------------|
|----------5-5-5-5-----------7-7-7-7---|
|-2-2-2-2--5-5-5-5--5-5-5-5--7-7-7-7---|
|-2-2-2-2--3-3-3-3--5-5-5-5--5-5-5-5---|
|-0-0-0-0-----------3-3-3-3------------|

|------------------------|
|------------------------|
|--------5-5-----------7-|
|-2-2----5-5----5-5----7-|
|-2-2----3-3----5-5----5-|
|-0-0-----------3-3------|

I tried to get it so that if you use the side bar it flows through the entire thing
and all, hope it works for you!
Tap to rate this tab
 
# A B C D E F G H I J K L M N O P Q R S T U V W X Y Z