Song name
# A B C D E F G H I J K L M N O P Q R S T U V W X Y Z

Fm Static - Her Fathers Song tab

#----------------------------------PLEASE NOTE---------------------------------#
#This file is the author's own work and represents their interpretation of the #
#song. You may only use this file for private study, scholarship, or research. #
#------------------------------------------------------------------------------#
HER FATHER'S SONG
As recorded by FM Static
(From the 2009 Album DEAR DIARY)
Transcribed by natuMzzri	Words and Music by FM Static

Cx 3 2 0 1 x	Amx 0 2 2 1 x	C/G3 3 2 0 1 0	F1 3 3 2 1 1

Gtr I (E A D G B E) - 'Acoustic'
Gtr II (E A D G B E) - 'Dist. Rythmn'
Gtr III (E A D G B E) - 'Bells/Piano'
Gtr IV (E A D G B E) - 'Oohs'
    Verse
    Slow Ballad Q=110
    $
    C                                   Am
   4/4
    Gtr I
    E E E E E E E E   E E E E E E E E   E E E E E E E E   E E E E E E E E
||------------------|-----------------|-----------------|-----------------|
||o---1---1---1---1-|---1---1---1---1-|---1---1---1---1-|---1---1---1---1-|
||------------------|-----------------|-----------------|-----------------|
||------------------|-----------------|-----------------|-----------------|
||o-3---3---3---3---|-3---3---3---3---|-0---0---0---0---|-0---0---0---0---|
||------------------|-----------------|-----------------|-----------------|


  C/G                                 Am                F
  E E E E E E E E   E E E E E E E E   E E E E E E E E   E E E E E E E E
|-----------------|-----------------|-----------------|------------------||
|---1---1---1---1-|---1---1---1---1-|---1---1---1---1-|---1---1---1---1-o||
|-----------------|-----------------|-----------------|------------------||
|-----------------|-----------------|-----------------|------------------||
|-----------------|-----------------|-----------------|-----------------o||
|-3---3---3---3---|-3---3---3---3---|-0---0---0---0---|-1---1---1---1----||


 Pre-Chorus
  C                C/G              C               C
 4/4
  E E E H    +E    E E E H    +E    E E E Q  Q.     E E E Q Q.
|----------------|----------------|---------------|---------------|
|----------------|----------------|-------1--0----|-------0-------|
|-------0--------|-------0----(0)-|---------------|---------0-----|
|-----5------(5)-|-----5----------|-----5---------|-----5---------|
|---5------------|---5------------|---5-----------|---5-----------|
|-8--------------|-7--------------|-8-------------|-7-------------|


  C                C
  E E E H    +E     W
|----------------|-------||
|----------------|-------||
|-------0----(0)-|-^0----||
|-----5----------|-^5----||
|---5------------|-^5----||
|-8--------------|-^7----||


   Chorus
    C5III                       A5
    Gtr II
    Q  Q  Q  Q    Q  Q  Q  Q    Q  Q  Q  Q    Q  Q  Q  Q
||--------------|-------------|-------------|--------------|
||o-------------|-------------|-------------|--------------|
||--5--5--5--5--|-5--5--5--5--|-------------|--------------|
||--5--5--5--5--|-5--5--5--5--|-7--7--7--7--|-7--7--7--7---|
||o-3--3--3--3--|-3--3--3--3--|-7--7--7--7--|-7--7--7--7---|
||--------------|-------------|-5--5--5--5--|-5--5--5--5---|


                             1.
  G5                          E5
  Q  Q  Q  Q    Q  Q  Q  Q    Q  Q  Q  Q
|-------------|-------------|-------------|
|-------------|-------------|-------------|
|-------------|-------------|-------------|
|-5--5--5--5--|-5--5--5--5--|-2--2--2--2--|
|-5--5--5--5--|-5--5--5--5--|-2--2--2--2--|
|-3--3--3--3--|-3--3--3--3--|-0--0--0--0--|


                 2.
                                To Coda
  F5(type 2)      E5
  Q  Q  Q  Q      W          +W
|--------------||----------|-------------||
|-------------o||----------|-------------||
|--------------||----------|-------------||
|-3--3--3--3---||-2--------|-(2)---------||
|-3--3--3--3--o||-2--------|-(2)---------||
|-1--1--1--1---||-0--------|-(0)---------||


 Interlude
  C                                   Am
  Gtr I
  E E E E E E E E   E E E E E E E E   E E E E E E E E   E E E E E E E E
|-----------------|-----------------|-----------------|-----------------|
|---1---1---1---1-|---1---1---1---1-|---1---1---1---1-|---1---1---1---1-|
|-----------------|-----------------|-----------------|-----------------|
|-----------------|-----------------|-----------------|-----------------|
|-3---3---3---3---|-3---3---3---3---|-0---0---0---0---|-0---0---0---0---|
|-----------------|-----------------|-----------------|-----------------|
|
| Gtr III
| W                 H       H         W                 W
|-----------------|-----------------|-----------------|-----------------|
|-----------------|-----------------|-----------------|-----------------|
|-5---------------|-7-------9-------|-4---------------|-5---------------|
|-----------------|-----------------|-----------------|-----------------|
|-----------------|-----------------|-----------------|-----------------|
|-----------------|-----------------|-----------------|-----------------|


                                                          D.S. al Coda
  C/G                                 Am                F
  E E E E E E E E   E E E E E E E E   E E E E E E E E   E E E E E E E E
|-----------------|-----------------|-----------------|-----------------||
|---1---1---1---1-|---1---1---1---1-|---1---1---1---1-|---1---1---1---1-||
|-----------------|-----------------|-----------------|-----------------||
|-----------------|-----------------|-----------------|-----------------||
|-----------------|-----------------|-----------------|-----------------||
|-3---3---3---3---|-3---3---3---3---|-0---0---0---0---|-1---1---1---1---||
|
| W                 H       H         W                 W
|-----------------|-----------------|-----------------|-----------------||
|-----------------|-----------------|-----------------|-----------------||
|-5---------------|-7-------9-------|-4---------------|-2---------------||
|-----------------|-----------------|-----------------|-----------------||
|-----------------|-----------------|-----------------|-----------------||
|-----------------|-----------------|-----------------|-----------------||


   Outro
    &
    C                                   Am
    Gtr I
    E E E E E E E E   E E E E E E E E   E E E E E E E E   E E E E E E E E
||------------------|-----------------|-----------------|------------------|
||o---1---1---1---1-|---1---1---1---1-|---1---1---1---1-|---1---1---1---1--|
||------------------|-----------------|-----------------|------------------|
||------------------|-----------------|-----------------|------------------|
||o-3---3---3---3---|-3---3---3---3---|-0---0---0---0---|-0---0---0---0----|
||------------------|-----------------|-----------------|------------------|
|
|   Gtrs III, IV
|   W                 H       H         W                 W
||------------------|-----------------|-----------------|------------------|
||o-----------------|-----------------|-----------------|------------------|
||--5---------------|-7-------9-------|-4---------------|-5----------------|
||------------------|-----------------|-----------------|------------------|
||o-----------------|-----------------|-----------------|------------------|
||------------------|-----------------|-----------------|------------------|


  C/G                                 Am                F
  E E E E E E E E   E E E E E E E E   E E E E E E E E   E E E E E E E E
|-----------------|-----------------|-----------------|------------------||
|---1---1---1---1-|---1---1---1---1-|---1---1---1---1-|---1---1---1---1-o||
|-----------------|-----------------|-----------------|------------------||
|-----------------|-----------------|-----------------|------------------||
|-----------------|-----------------|-----------------|-----------------o||
|-3---3---3---3---|-3---3---3---3---|-0---0---0---0---|-1---1---1---1----||
|
| W                 H       H         W                 W
|-----------------|-----------------|-----------------|------------------||
|-----------------|-----------------|-----------------|-----------------o||
|-5---------------|-7-------9-------|-4---------------|-2----------------||
|-----------------|-----------------|-----------------|------------------||
|-----------------|-----------------|-----------------|-----------------o||
|-----------------|-----------------|-----------------|------------------||


 

Duration Legend
---------------
W - whole; H - half; Q - quarter; E - 8th; S - 16th; T - 32nd; X - 64th; a - acciaccatura
+ - note tied to previous; . - note dotted; .. - note double dotted
Uncapitalized letters represent notes that are staccato (1/2 duration)
Irregular groupings are notated above the duration line
Duration letters will always appear directly above the note/fret number it represents the
duration for.  Duration letters with no fret number below them represent rests.  Multi-
bar rests are notated in the form Wxn, where n is the number of bars to rest for.  Low
melody durations appear below the staff

Tablature Legend
----------------
 h   - hammer-on
 p   - pull-off
 b   - bend
 pb  - pre-bend
 r   - bend release (if no number after the r, then release immediately)
 /\  - slide into or out of (from/to "nowhere")
 s   - legato slide
 S   - shift slide
 - natural harmonic
[n]  - artificial harmonic
n(n) - tapped harmonic
 ~   - vibrato
 tr  - trill
 T   - tap
 TP  - trem. picking
 PM  - palm muting
\n/  - tremolo bar dip; n = amount to dip
 \n  - tremolo bar down
 n/  - tremolo bar up
/n\  - tremolo bar inverted dip
 =   - hold bend; also acts as connecting device for hammers/pulls
 <> - volume swell (louder/softer)
 x   - on rhythm slash represents muted slash
 o   - on rhythm slash represents single note slash

Misc Legend
-----------
 |  - bar
||  - double bar
||o - repeat start
o|| - repeat end
*|  - double bar (ending)
 :  - bar (freetime)
 $  - Segno
 &  - Coda
Tempo markers -  = BPM(8/16=s8/s16), where s8 = swing 8ths, s16 = swing 16ths
Tap to rate this tab
# A B C D E F G H I J K L M N O P Q R S T U V W X Y Z