Song name
# A B C D E F G H I J K L M N O P Q R S T U V W X Y Z

Fm Static - Six Candles tab

INTRO:
standard tunnings

E-----------------------------------|
B-----7----7----7-----7-------------|
G----9-9--9-9--9-9--9---------------|
D---9----9----7----7-7--------------|
A-----------------------------------|
E-----------------------------------|


E----------------------------|
B-----7-----7----9-10-9-5-7--|
G----9-9---9-9--9------------|
D---9-----9----7-------------|
A----------------------------|
E----------------------------|


E------------------------------------------|
B---7-9-7-7-9-7-7-9-7-10-9-7-5-------------|
G------------------------------------------| (2x)
D------------------------------------------|
A------------------------------------------|
E------------------------------------------|
listen to the music for the strumming pattern... hihihi :)


E-------------------------------|
B-------------------------------|
G---9---------------------------|
D---9----7---9------------------|
A---7----7---9------------------|
E--------5---7------------------|

CHO.
E------------------------------------|
B------------------------------------|
G---9---------------9----------------|
D---9---9--11-7-----9--9--7--9-------|
A---7---9--11-7-----7--9--7--9-------|
E-------7--9--5--------7--5--7-------|

hope you like it.. hehehe :) first tab ko toh.. :)

email me kung may mali
emoprince_0621@yahoo.com..
Tap to rate this tab
 
# A B C D E F G H I J K L M N O P Q R S T U V W X Y Z