Song name
# A B C D E F G H I J K L M N O P Q R S T U V W X Y Z

Fm Static - The Unavoidable Battle Of Feeling On The Outside tab

ok so this was originally tabbed by ssssam, and he got the intro right, but 
everything else  wrong. Heres how it really goes. 

intro part 1

guitar 1

E. ---------------------------------------------------------------|
A. ---------------------------------------------------------------|
D. ---------------------------------------------------------------|
G. -12-11-12-14-12-11-12-14-12-11-12-14-12-11-12-14---------------| x5
B. ---------------------------------------------------------------|
e. ---------------------------------------------------------------|

guitar 2 (after first time through)

E. -44-4444--77-7777----------------------------------------------|
A. -66-6666--99-9999----------------------------------------------|
D. -66-6666--99-9999----------------------------------------------|x2
G. ---------------------------------------------------------------|
B. ---------------------------------------------------------------|
e. ---------------------------------------------------------------|

intro  part 2

E. -----------------------------------------------|
A. -----------------------------------------------|
D. ------------------------12-12-12-12-10-10-10-10|
G. -12-12-12-12-11-11-11-11-----------------------|
B. -----------------------------------------------|
e. -----------------------------------------------|

E. ------------------------------------------------|
A. ------------------------------------------------|
D. -----------------------12-12-12-12--------------|
G. 12-12-12-12-11-11-11-11-------------------------|
B. ------------------------------------------------|
e. ------------------------------------------------|

verse

E. -44-4444-77-7777--------------------------------|
A. -66-6666-99-9999--------------------------------|
D. -66-6666-99-9999--------------------------------|x4
G. ------------------------------------------------|
B. ------------------------------------------------|
e. ------------------------------------------------|

chorus - same as verse

post-chorus - same as intro

repeat verse

solo 

E. ------------------------------------------------------------------------|
A. ------------------------------------------------------------------------|
D. --------------12--12-12-12-10-10-10----------------12--12-12-12-10-10-10|
G. 12-12-11h12p11-----------------------12-12-11h12p11---------------------|
B. ------------------------------------------------------------------------|
e. ------------------------------------------------------------------------|
repeat intro part 2

repeat chorus

ok im pretty sure this is right, but be sure to rate and comment

fm static = amazing
Tap to rate this tab
 
# A B C D E F G H I J K L M N O P Q R S T U V W X Y Z