Song name
# A B C D E F G H I J K L M N O P Q R S T U V W X Y Z

Fm Static - My Brain Says Stop But My Heart Says Go tab

Intro:

Guitar 1:

(distortion)
 e|--------------------|
 B|--------------------|
 G|--------------------| just one time
 D|--7---0---4---0--2--|
 A|--7---0---4---0--2--|
 D|--7---0---4---0--2--|

Guitar 2:

(distortion)
 e|----------------------|
 B|--5---3--2--5---3--2--|
 G|----------------------|
 D|----------------------| this is times 2
 A|----------------------|
 D|----------------------|

Verse 1:

(play twice with acoustic, then twice with distortion)
 e|--------------------------------------|
 B|--------------------------------------|
 G|--------------------------------------|
 D|--0-xx-2-2-7-xx-xxx-7-xxx-x-5-xx-xxx--|
 A|--0-xx-2-2-7-xx-xxx-7-xxx-x-5-xx-xxx--|
 D|--0-xx-2-2-7-xx-xxx-7-xxx-x-5-xx-xxx--|

then:
 e|--------------|
 B|--------------|
 G|--------------|
 D|--0-x-2-2-----|
 A|--0-x-2-2-----|
 D|--0-x-21-2----|

Repeat Intro
 Repeat Verse 1

Bridge:

(2x distorted)
 e|-----------------------------|
 B|-----------------------------|
 G|-----------------------------|
 D|--6/7-7-7--6/7-7-7--6/7-7-7--|
 A|--6/7-7-7--6/7-7-7--6/7-7-7--|
 D|--6/7-7-7--6/7-7-7--6/7-7-7--|



(distortion)
 e|7-5-5-5-7-9-7-5-7-5-5-5-7-5-5-5-7-9-7-5-5-5-7-9-7-5-------------------------------|
 B|----------------------------------------------------15-14-12-14-12-10-9-10-9-7-5--|
 G|----------------------------------------------------------------------------------|
 D|----------------------------------------------------------------------------------|
 A|----------------------------------------------------------------------------------|
 D|----------------------------------------------------------------------------------|

Verse 2:

2x distorted)
 e|-----------------------------|
 B|-----------------------------|
 G|-----------------------------|
 D|--6/7-7-7--6/7-7-7--6/7-7-7--|
 A|--6/7-7-7--6/7-7-7--6/7-7-7--|
 D|--6/7-7-7--6/7-7-7--6/7-7-7--|



 e|-----------------------------|
 B|-----------------------------|
 G|-----------------------------|
 D|--6/7-7-7--6/7-7-7--6/7-7-7--|
 A|--6/7-7-7--6/7-7-7--6/7-7-7--|
 D|--6/7-7-7--6/7-7-7--6/7-7-7--|



Repeat Intro

Repeat:

 Intro guitar 1 and 2


Repeat Verse 2
Tap to rate this tab
# A B C D E F G H I J K L M N O P Q R S T U V W X Y Z