Song name
# A B C D E F G H I J K L M N O P Q R S T U V W X Y Z

Fm Static - What It Feels Like tab

-------------------------------------------------------------------------------
                             What It feels like - FM STATIC
-------------------------------------------------------------------------------
Tabbed by: Radikoolz
E-mail:radikoolz@hotmail.com
Tumblr: radikoolz.tumblr.com

First tab I've ever made, since there was no other tabs on this song! Done by ear, 
sounds pretty close to me!

Tuning: Standard.

INTRO (Clean Guitar)     Repeat 4 Times

e|-----------------------------------------------------------------------------|
B|-----------------------------------------------------------------------------|
G|-11-11-11-11-11-11-11-11--9--9--9--9--9--9--9--9-----------------------------|
D|-11-11-11-11-11-11-11-11--9--9--9--9--9--9--9--9-----------------------------|
A|--9--9--9--9--9--9--9--9---7--7--7--7--7--7--7--7----------------------------|
E|-----------------------------------------------------------------------------|

e|-----------------------------------------------------------------------------|
B|-----------------------------------------------------------------------------|
G|--12-12-12-12-12-12-12-12--7--7--7--7--7--7--7--7----------------------------|
D|--12-12-12-12-12-12-12-12--7--7--7--7--7--7--7--7----------------------------|
A|--10-10-10-10-10-10-10-10--5--5--5--5--5--5--5--5----------------------------|
E|-----------------------------------------------------------------------------|

Electric guitar part ( Don't try to phone...)        Repeat until Chorus

e|-----------------------------------------------------------------------------|
B|-----------------------------------------------------------------------------|
G|--7--7--7--------2-----------------------------------------------------------|
D|--7--7--7--------2-----------------------------------------------------------|
A|--5--5--5--------------------------------------------------------------------|
E|-----------------------------------------------------------------------------|

Chorus

e|-----------------------------------------------------------------------------|
B|-----------------------------------------------------------------------------|
G|--7-7------------------------------------------------------------------------|
D|--7-7----7-7----9-9--5-5-----------------------------------------------------|
A|--5-5----7-7----9-9--5-5-----------------------------------------------------|
E|--------- 5-5----7-7--3-3----------------------------------------------------|


Repeat the Chorus and verse as needed.

THANKS FOR VIEWING :D
Tap to rate this tab
# A B C D E F G H I J K L M N O P Q R S T U V W X Y Z