Song name
# A B C D E F G H I J K L M N O P Q R S T U V W X Y Z

Fm Static - Breaking Me Again tab

Since I haven't seen the tabs for this song anywhere, I decided to go ahead and
figure it out and post the tabs.
This song is meant for two guitarists, a lead and a rhythm.
Any questions or if I messed something up, send me an email at xandergauge@gmail.com
Tempo is 136 bpm.
Have Fun!

Part A (Lead)
e-------15-12----------12-------------------------------|
b-------------15-13-15----15-13--13-15-13~--------------|
g-12-12-------------------------------------------------|
d-------------------------------------------------------|
a-------------------------------------------------------|
e-------------------------------------------------------|

Part B (Rhythm/Lead)
  pm  pm  pm  pm  pm
e-----------------------------------------------------|
b-----------------------------------------------------|
g-----------------------------------------------------|
d-5---2-------5---2-----------------------------------|
a-3---0---5---3---0---5-------------------------------|
e---------3-----------3-------------------------------|
 16x  8x  8x  8x 16x  5x

Part C (Rhythm/Lead)
e-----------------------------------------------------|
b-----------------------------------------------------|
g-----------------------------------------------------|
d-5---------------------------------------------------|
a-3---7---3---5---------------------------------------|
e-----5---1---3---------------------------------------|
  8x  8x  8x  8x

Part D (Rhythm/Lead)
e-----------------------------------------------------|
b-----------------------------------------------------|
g-----------------------------------------------------|
d-2-2-x-x-x-x-----------------5-5-x-x-x-x-------------|
a-0-0-x-x-x-x---3-3-x-x-x-x---3-3-x-x-x-x---5-5-x-5---|
e---------------1-1-x-x-x-x-----------------3-3-x-3---|

Part E  (Rhythm)
e-0---0---0---0~--------------------------------------|
b-1---1---1---1~--------------------------------------|
g-2---0---2---0~--------------------------------------|
d-2---2---2---2~--------------------------------------|
a-0---3---0---3~--------------------------------------|
e-----------------------------------------------------|
  10x 10x 10x 1x

Order:
Part C 4x/Part A 5x (Rhythm begins playing Part C after Lead has played Part A 1x)
Part B 1x
Part C 2x/Part A 2x (Lead plays Part A at second half of Part C)
Part B 1x
Part C 2x/Part A 2x
Part D 4x/Part A 4x (Lead begins playing Part A after Rhythm has played Part D 2x)
Part E 1x
Part C 3x/Part A 3x
Part D 2x/Part A 4x

If anything seems confusing, here is a link to the song on youtube
youtube.com/watch?v=NDnw2-TEkUw

Legend:
x=muted string
pm=palm mute
~=let ring
#x=number of times chord or part is played
Tap to rate this tab
# A B C D E F G H I J K L M N O P Q R S T U V W X Y Z