Song name
# A B C D E F G H I J K L M N O P Q R S T U V W X Y Z

Fm Static - Six Candles chords

Highlighted       Show chord diagrams
Six Candle by FM Static
Capo on the first fret.

Intro:

e|--------0-----------0-----------0------------0--------0-----------0-----|
B|-----3-----3-----3-----3-----3-----3~-----3--------3-----3-----3-----3--|
G|--2-----------2-----------0------------0--------2-----------2-----------|
D|------------------------------------------------------------------------|
A|------------------------------------------------------------------------|
E|------------------------------------------------------------------------|

e|--------2--3--2-----0---|
B|-----3-----------3------|
G|--0---------------------|
D|------------------------|
A|------------------------|
E|------------------------|

e|--------2-----------2-----------2-----3--2--0-----|
B|-----3-----3-----3-----3-----3-----3-----------3--|
G|--2-----------2-----------0-----------------------|
D|--0-----------0-----------0-----------------------|
A|--------------------------------------------------|
E|--------------------------------------------------|

e|--------2-----------2-----------2-----3--2--0-----|
B|-----3-----3-----3-----3-----3-----3-----------3--|
G|--2-----------2-----------0-----------------------|
D|--0-----------0-----------0-----------------------|
A|--------------------------------------------------|
E|--------------------------------------------------|


D                           Bm              G
You're amazing but you're taking too much time
D                          
I've only got six candles left
  Bm                 G 
And I'm trying to keep this off my mind
D                                 Bm            G
It's getting darker but it's the way they make feel
D                                                
They try to fill my head with questions
           Bm                          G      
They all doubt you but I know you're real


D      Em                         Bm
If it takes time then I'll be patient
          G       
Know that I will still believe
D               Em                   Bm  
I'll take your hand and hold it tightly
          G                  
Because I know you'll carry me 

 
CHORUS:

D         A            Bm              G             
 Take me high, Take me in, Take these last six candles
D                G                 D 
 And when I'm tired, of wearing thin.
               A                 
 Give me the strength to carry on
D        A          Bm                G         
 Here I am, see my hands, take these last six candles
D             A             D             G
 We're moving on, we'll keep, keep, moving on



D                         Bm         G
And I'm so thankful for every breath I take
D              
Theres not a moment that goes by 
       Bm            G
I waste wiping tears out of my crying face
D             Em                        Bm
Don't look so sad, you've missed the point
            G                D           Em
I'm still so glad I knew you against the odds 
               Bm                    G            
I'll take my chances and burn this candle through you


D             Bm                   Bm
If it takes time then I'll be patient
             G             
Know that I will still believe
D                Em                  Bm  
I'll take your hand and hold it tightly
                 G           
Because I know you'll carry me 
 

CHORUS:

D         A            Bm              G         
 Take me high, Take me in, Take these last six candles
D                G                 D 
 And when I'm tired, of wearing thin.
                A
 Give me the strength to carry on
D        A          Bm                G         
 Here I am, see my hands, take these last six candles
D             A            D                G
 We're moving on, we'll keep, keep, moving on


E           B           F#m           A
If I could ever see the way you understand me
E            B         
When no one else can see it
D             A
I know you surround me
E            B              F#m            A   
I'll be the one who listens only when you tell me
E            B           C#m            A     
Not walking but running, not talking, yelling


Bm               A           D        E           Bm                                       
And they might never understand why I do what I do
          A               D
But I can only speak my mind
        E               Bm
And what I feel is true 
             A             D             E                Bm
I'll take a vow to be the only one who stands if it takes
           A                 C       D
All that I am, I will be standing, there, there


CHORUS:

G          D            Em             C            
 Take me high, Take me in, Take these last six candles
G               C                   G
 And when I'm tired, and wearing thin
                D              
 Give me the strength to carry on
G        D             Em              C          
 Here I am, see my hands, take these last six candles
G              D        G                C 
 We're moving on, we'll keep, keep, moving on  (x2)


Then.... G





...thank you.... just add me on fb... shamzyndz@yahoo.com
Tap to rate this tab
 
# A B C D E F G H I J K L M N O P Q R S T U V W X Y Z