Guitaretab - guitar tabs
Song name
# A B C D E F G H I J K L M N O P Q R S T U V W X Y Z

Fm Static - Three Days Later tab

_______________________________________________________________________
INTRO

|----------|-------------------|
|----------|-------------------|
|----------|-----5555-6-x------|
|---6~~~---|-6-x-5555-6-x-6666-|
|---6~~~---|-6-x-3333-4-x-6666-|
|---4~~~---|-4-x----------4444-|

_______________________________________________________________________
VERSE

|-------------------------------------|--------------------
|-------------------------------------|--------------------
|-------------------55555555-66666666-|--------------------
|-66666666-55555555-55555555-66666666-|-66666666-55555555--
|-66666666-55555555-33333333-44444444-|-66666666-55555555--
|-44444444-33333333-------------------|-44444444-33333333--
  ........ ........ ........ ........   ........ ........

 --------------------|
 --------------------|
 ------5555-6-x------|
 --6-x-5555-6-x-6666-|
 --6-x-3333-4-x-6666-|
 --4-x----------4444-|

_______________________________________________________________________
CHORUS
G1
|-----------------------------------------------------|
|-----------------------------------------------------|
|-13--13-13-12-12---12-12-10-10---10-10-12-8---10-12-|
|-x----x--x-x--x----x--x--x--x----x--x--x--x---x--x-|
|-11--11-11-10-10--10-10-8--8----8--8--10-6---8--10-|
|-----------------------------------------------------|[x2]

G2
|-------------------------------------|
|-------------------------------------|
|----------------------------5-55-666-|
|-6-66-666-5-55-555-3-33-333-5-55-666-|
|-6-66-666-5-55-555-3-33-333-3-33-444-|
|-4-44-444-3-33-333-1-11-111----------|[x2]

_______________________________________________________________________
PRE-VERSE
G1
|--------------------------------------------------------|
|--------------------------------------------------------|
|-13--13-13-12-12---12-12-10-10---10-10-12-8---12-12-12-|
|-x----x--x-x--x----x--x--x--x----x--x--x--x---x--x-x--|
|-11--11-11-10-10--10-10-8--8----8--8--10-6---10-10-10-|
|--------------------------------------------------------|

G2
|-------------------------------------|
|-------------------------------------|
|-------------------------------------|
|-6-66-666-5-55-555-3-33-333-5-55-555-|
|-6-66-666-5-55-555-3-33-333-5-55-555-|
|-4-44-444-3-33-333-1-11-111-3-33-333-|

_______________________________________________________________________
VERSE

|---------------------------------------
|---------------------------------------
|---------------------------------------
|-xx6-xx6-xx6-6-5-6-xx3-xx3-xx5-6-5----
|-xx6-xx6-xx6--------xx3-xx3-xx5-----6--
|-xx4-xx4-xx4--------xx1-xx1-xx3--------

 ---------------------------------------|
 ---------------------------------------|
 ---------------------------------------|
 -xx6-xx6-xx6-6-5-6-xx3-xx3-55555555---|
 -xx6-xx6-xx6--------xx3-xx3-55555555---|
 -xx4-xx4-xx4--------xx1-xx1-33333333---|

_______________________________________________________________________
BRIDGE

|------------------------------|
|------------------------------|
|---------------5--5-5-6666666-|
|-6--6-6-8-8-8-5--5-5-6666666-|
|-6--6-6-8-8-8-3--3-3-4444444-|
|-4-4-4-6-6-6----------------|[x3]
[ Tab from: http://www.guitaretab.com/f/fm-static/48802.html ]
_______________________________________________________________________
CHORUS
G1
|-----------------------------------------------------|
|-----------------------------------------------------|
|-13--13-13-12-12---12-12-10-10---10-10-12-8---10-12-|
|-x----x--x-x--x----x--x--x--x----x--x--x--x---x--x-|
|-11--11-11-10-10--10-10-8--8----8--8--10-6---8--10-|
|-----------------------------------------------------|[x2]

G2
|-------------------------------------|
|-------------------------------------|
|----------------------------5-55-666-|
|-6-66-666-5-55-555-3-33-333-5-55-666-|
|-6-66-666-5-55-555-3-33-333-3-33-444-|
|-4-44-444-3-33-333-1-11-111----------|[x2]

_______________________________________________________________________
SOLO
G1
|-------------------------------------------------------------|
|-------------------------------------------------------------|
|----8-8-----------8-8----------------------------------------|
|-6-------8-8-6-6-------8-8-6-6-8-8/10-8-10-10/11-10-8-8-10-8-|
|-------------------------------------------------------------|
|-------------------------------------------------------------|

|-------------------------------------------------------------|
|-------------------------------------------------------------|
|----8-8-----------8-8----------------------------------------|
|-6-------8-8-6-6-------8-8-6-8/10-10-10-10/11\10-8~~~--------|
|-------------------------------------------------------------|
|-------------------------------------------------------------|

G2
|-------------------------------------|
|-------------------------------------|
|----------------------------5-55-666-|
|-6-66-666-5-55-555-3-33-333-5-55-666-|
|-6-66-666-5-55-555-3-33-333-3-33-444-|
|-4-44-444-3-33-333-1-11-111----------|[x2]

_______________________________________________________________________
PRE-CHORUS

|--------------------|
|--------------------|
|-----5555-6-x-------|
|-6-x-5555-6-x-66666-|
|-6-x-3333-4-x-66666-|
|-4-x----------44444-|

_______________________________________________________________________
CHORUS

|----------|--------------------------------------|
|----------|--------------------------------------|
|----------|----------------------------5555-6666-|
|----------|-66666666-55555555-33333333-5555-6666-|
|----------|-66666666-55555555-33333333-3333-4444-|
|----------|-44444444-33333333-11111111-----------|
             ........ ........ ........
G1
|-----------------------------------------------------|    |------|
|-----------------------------------------------------|    |------|
|-13--13-13-12-12---12-12-10-10---10-10-12-8---10-12-|    |------|
|-x----x--x-x--x----x--x--x--x----x--x--x--x---x--x-|    |-6~~~-|
|-11--11-11-10-10--10-10-8--8----8--8--10-6---8--10-|    |-6~~~-|
|-----------------------------------------------------|[x2]|-4~~~-|

G2
|-------------------------------------|    |------|
|-------------------------------------|    |------|
|----------------------------5-55-666-|    |------|
|-6-66-666-5-55-555-3-33-333-5-55-666-|    |-6~~~-|
|-6-66-666-5-55-555-3-33-333-3-33-444-|    |-6~~~-|
|-4-44-444-3-33-333-1-11-111----------|[x2]|-4~~~-|

_______________________________________________________________________
END
Related for Three Days Later tab