Song name
# A B C D E F G H I J K L M N O P Q R S T U V W X Y Z

Fm Static - My First Stereo tab

e|-----------------------------------------------------------|
B|-----10-11-10------10-11-10-----10-11-10-11-13-11-10-11-10-|
G|10-10---------10-10--------10-10---------------------------|
D|-----------------------------------------------------------|
A|-----------------------------------------------------------|
E|-----------------------------------------------------------|

e|-------------------------13----------13-15-17-15-13-10--8--|
B|------10-11-13-----10-11--------10-11----------------------|
G|10-10---------10-10--------10-10---------------------------|
D|-----------------------------------------------------------|
A|-----------------------------------------------------------|
E|-----------------------------------------------------------|

Tap to rate this tab
 
# A B C D E F G H I J K L M N O P Q R S T U V W X Y Z