Song name
# A B C D E F G H I J K L M N O P Q R S T U V W X Y Z

Fm Static - Hold Me Twice tab

-------------------------------------------------------------------------------
			     Hold Me Twice - FM Static
-------------------------------------------------------------------------------
Tabbed By:Jesus Freak92
Tuning: Drop D

Intro/Verse
D|-------------------------------------------------------------------------|
A|-------------------------------------------------------------------------|
D|-9~----8~----9~----8~------------------------------(x2)------------------|

Prechorus/Chorus
d|-9-4-2-4-----------------------------------------------------------------|
a|-9-4-2-4-----------------------------------------------------------------|
D|-9-4-2-4-----------------------------------------------------------------|
Y'all can figure out the strumming here, it's not hard.

(Repeat Intro Riff)
(Repeat Verse)
(Repeat Prechorus/Chorus)

Solo Bridge
G|-14-14b16-16-11-11-14b16-16-11-11-14-11-9-7------------------------------|
d|--------------------------------------------9~---------------------------|
a|--------------------------------------------9~---------------------------|
D|--------------------------------------------9~---------------------------|
(Repeat chorus x2)

Tag
d|-9-4-2-4-2-4-9
a|-9-4-2-4-2-4-9
D|-9-4-2-4-2-4-9
again, just figure out the strumming, it's not hard.

| b   bend
| unb unbend
| /   slide up
| \   slide down
| h   hammer-on
| p   pull-off
| ~   let ring
| +   harmonic
| x   Mute note
===============================================================================
Tap to rate this tab
 
# A B C D E F G H I J K L M N O P Q R S T U V W X Y Z