Guitaretab - guitar tabs
Song name
# A B C D E F G H I J K L M N O P Q R S T U V W X Y Z

Fm Static - Video Store tab

-------------------------------------------------------------------------------
			     The Video Store  Fm Static
-------------------------------------------------------------------------------
Tabbed by: Jed L
Email: firesidewing@hotmail.com

Tuning: E A D G B e

Guitar I  (E A D G B e)
Guitar II (E A D G B e)

Intro:
  Guitar 1
e|---------------------------------|---------------------------------|
B|---------------------------------|---------------------------------|
G|-----------------7-7-7-7-7-7-7-7-|-4-4-4-4-4-4-4-4-5-5-5-5-5-5-5-5-|
D|-5-5-5-5-5-5-5-5-7-7-7-7-7-7-7-7-|-4-4-4-4-4-4-4-4-5-5-5-5-5-5-5-5-|
A|-5-5-5-5-5-5-5-5-5-5-5-5-5-5-5-5-|-2-2-2-2-2-2-2-2-3-3-3-3-3-3-3-3-|
E|-3-3-3-3-3-3-3-3-----------------|---------------------------------|
 |
 |Guitar 2
e|---9------------7-------------------------------------------|
B|-----10-8---------10-8-10---7-8-7---------------------------|
G|-7--------7-7-7-----------7-------7-----------------------7-|
D|------------------------------------10--10-10-10-10--9-10---|
A|------------------------------------------------------------|
E|------------------------------------------------------------|

  Guitar 1
e|---------------------------------|---------------------------------|
B|---------------------------------|---------------------------------|
G|-----------------7-7-7-7-7-7-7-7-|-4-4-4-4-4-4-4-4-5-5-5-5-5-5-5-5-|
D|-5-5-5-5-5-5-5-5-7-7-7-7-7-7-7-7-|-4-4-4-4-4-4-4-4-5-5-5-5-5-5-5-5-|
A|-5-5-5-5-5-5-5-5-5-5-5-5-5-5-5-5-|-2-2-2-2-2-2-2-2-3-3-3-3-3-3-3-3-|
E|-3-3-3-3-3-3-3-3-----------------|---------------------------------|
 |
 |Guitar 2
e|---9------------7-------------------------------------------|
B|-----10-8---------10-8-10---7-8-7---------------------------|
G|-7--------7-7-7-----------7-------7-----------------------7-|
D|------------------------------------10--10-10-10-10--9-10---|
A|------------------------------------------------------------|
E|------------------------------------------------------------|

Verse:
e|-----------------------------------------|-----------------------------------------|
B|-----------------------------------------|-----------------------------------------|
G|-----------------------------------------|-----------------------------------------|
D|-12-12-12-12-11-11-11-11-9-9-9-9-7-7-7-7-|-12-12-12-12-11-11-11-11-9-9-9-9-5-5-7-7-|
A|-10-10-10-10-9--9--9--9--7-7-7-7-5-5-5-5-|-10-10-10-10-9--9--9--9--7-7-7-7-3-3-5-5-|
E|-----------------------------------------|-----------------------------------------|

e|-----------------------------------------|-----------------------------------------|
B|-----------------------------------------|-----------------------------------------|
G|-----------------------------------------|-----------------------------------------|
D|-12-12-12-12-11-11-11-11-9-9-9-9-7-7-7-7-|-12-12-12-12-11-11-11-11-9-9-9-9-5-5-7-7-|
A|-10-10-10-10-9--9--9--9--7-7-7-7-5-5-5-5-|-10-10-10-10-9--9--9--9--7-7-7-7-3-3-5-5-|
E|-----------------------------------------|-----------------------------------------|


Chorus:
e|----------------------|--------------------|
B|----------------------|--------------------|
G|-5-5--7-7-------------|-5-5--7-7--9--9-----|
D|-5-5--7-7--5--5--7--7-|-5-5--7-7--9--9-7-7-|
A|-3-3--5-5--5--5--7--7-|-3-3--5-5--7--7-7-7-|
E|-----------3--3--5--5-|----------------5-5-|

e|----------------------|----------------------|
B|----------------------|----------------------|
G|-5-5--7-7-------------|-5--7--5--------------|
D|-5-5--7-7--5--5--7--7-|-5--7--5--------------|
A|-3-3--5-5--5--5--7--7-|-3--5--3--------------|
E|-----------3--3--5--5-|----------------------|

  Guitar 1
e|-----------------------------------------------------------------|
B|-----------------------------------------------------------------|
G|-------------------------------------------------5-5-5-5-5-5-5-5-|
D|-5-5-5-5-5-5-5-5-7-7-7-7-7-7-7-7-2-2-2-2-2-2-2-2-5-5-5-5-5-5-5-5-|
A|-5-5-5-5-5-5-5-5-7-7-7-7-7-7-7-7-2-2-2-2-2-2-2-2-3-3-3-3-3-3-3-3-|
E|-3-3-3-3-3-3-3-3-5-5-5-5-5-5-5-5-0-0-0-0-0-0-0-0-----------------|
 |
 |Guitar 2
e|------------------------------|
B|-10-8----10-8----10-8---------|
G|------7b------7b------7b----7-|
D|-------------------------10---|
A|------------------------------|
E|------------------------------|

  Guitar 1
e|-----------------------------------------------------------------|
B|-----------------------------------------------------------------|
G|-------------------------------------------------5-5-5-5-5-5-5-5-|
D|-5-5-5-5-5-5-5-5-7-7-7-7-7-7-7-7-2-2-2-2-2-2-2-2-5-5-5-5-5-5-5-5-|
A|-5-5-5-5-5-5-5-5-7-7-7-7-7-7-7-7-2-2-2-2-2-2-2-2-3-3-3-3-3-3-3-3-|
E|-3-3-3-3-3-3-3-3-5-5-5-5-5-5-5-5-0-0-0-0-0-0-0-0-----------------|
 |
 |Guitar 2
e|---------7------7------7------7------7------7-----7h8p7h8p7-|
B|-10-8------8------10-8---10-8---10-8---10-8---10-8----------|
G|------7b-----7b---------------------------------------------|
D|------------------------------------------------------------|
A|------------------------------------------------------------|
E|------------------------------------------------------------|

Verse:
e|-----------------------------------------|-----------------------------------------|
B|-----------------------------------------|-----------------------------------------|
G|-----------------------------------------|-----------------------------------------|
D|-12-12-12-12-11-11-11-11-9-9-9-9-7-7-7-7-|-12-12-12-12-11-11-11-11-9-9-9-9-5-5-7-7-|
A|-10-10-10-10-9--9--9--9--7-7-7-7-5-5-5-5-|-10-10-10-10-9--9--9--9--7-7-7-7-3-3-5-5-|
E|-----------------------------------------|-----------------------------------------|
[ Tab from: http://www.guitaretab.com/f/fm-static/77867.html ]
e|-----------------------------------------|-----------------------------------------|
B|-----------------------------------------|-----------------------------------------|
G|-----------------------------------------|-----------------------------------------|
D|-12-12-12-12-11-11-11-11-9-9-9-9-7-7-7-7-|-12-12-12-12-11-11-11-11-9-9-9-9-5-5-7-7-|
A|-10-10-10-10-9--9--9--9--7-7-7-7-5-5-5-5-|-10-10-10-10-9--9--9--9--7-7-7-7-3-3-5-5-|
E|-----------------------------------------|-----------------------------------------|

Chorus:
e|----------------------|--------------------|
B|----------------------|--------------------|
G|-5-5--7-7-------------|-5-5--7-7--9--9-----|
D|-5-5--7-7--5--5--7--7-|-5-5--7-7--9--9-7-7-|
A|-3-3--5-5--5--5--7--7-|-3-3--5-5--7--7-7-7-|
E|-----------3--3--5--5-|----------------5-5-|

e|----------------------|----------------------|
B|----------------------|----------------------|
G|-5-5--7-7-------------|-5--7--5--------------|
D|-5-5--7-7--5--5--7--7-|-5--7--5--------------|
A|-3-3--5-5--5--5--7--7-|-3--5--3--------------|
E|-----------3--3--5--5-|----------------------|

  Guitar 1
e|-----------------------------------------------------------------|
B|-----------------------------------------------------------------|
G|-------------------------------------------------5-5-5-5-5-5-5-5-|
D|-5-5-5-5-5-5-5-5-7-7-7-7-7-7-7-7-2-2-2-2-2-2-2-2-5-5-5-5-5-5-5-5-|
A|-5-5-5-5-5-5-5-5-7-7-7-7-7-7-7-7-2-2-2-2-2-2-2-2-3-3-3-3-3-3-3-3-|
E|-3-3-3-3-3-3-3-3-5-5-5-5-5-5-5-5-0-0-0-0-0-0-0-0-----------------|
 |
 |Guitar 2
e|------------------------------|
B|-10-8----10-8----10-8---------|
G|------7b------7b------7b----7-|
D|-------------------------10---|
A|------------------------------|
E|------------------------------|

  Guitar 1
e|-----------------------------------------------------------------|
B|-----------------------------------------------------------------|
G|-------------------------------------------------5-5-5-5-5-5-5-5-|
D|-5-5-5-5-5-5-5-5-7-7-7-7-7-7-7-7-2-2-2-2-2-2-2-2-5-5-5-5-5-5-5-5-|
A|-5-5-5-5-5-5-5-5-7-7-7-7-7-7-7-7-2-2-2-2-2-2-2-2-3-3-3-3-3-3-3-3-|
E|-3-3-3-3-3-3-3-3-5-5-5-5-5-5-5-5-0-0-0-0-0-0-0-0-----------------|
 |
 |Guitar 2
e|---------7------7------7------7------7------7------7h8p7h8p7-|
B|-10-8------8------10-8---10-8---10-8---10-8---10-8-----------|
G|------7b-----7b----------------------------------------------|
D|-------------------------------------------------------------|
A|-------------------------------------------------------------|
E|-------------------------------------------------------------|

  Guitar 1
e|--------------------------|--------------------------|
B|--------------------------|--------------------------|
G|-------------5-5--5-5-5-5-|-------------5-5--5-5-5-5-|
D|-5-5-7-7-2-2-5-5--5-5-5-5-|-5-5-7-7-2-2-5-5--5-5-5-5-|
A|-5-5-7-7-2-2-3-3--3-3-3-3-|-5-5-7-7-2-2-3-3--3-3-3-3-|
E|-3-3-5-5-0-0--------------|-3-3-5-5-0-0--------------|
 |
 |Guitar 2
e|-----------------------------------|-----------------------------------|
B|-----------------------------------|-----------------------------------|
G|-----------------------------------|-----------------------------------|
D|-5-5-5-5-5-5-5-5-5-5-5-5-5-5-7-7/9-|-5-5-5-5-5-5-5-5-5-5-5-5-5-5-7-7/9-|
A|-----------------------------------|-----------------------------------|
E|-----------------------------------|-----------------------------------|

  Guitar 1
e|--------------------------|--------------------------|
B|--------------------------|--------------------------|
G|-------------5-5--5-5-5-5-|-------------5-5--5-5-5-5-|
D|-5-5-7-7-2-2-5-5--5-5-5-5-|-5-5-7-7-2-2-5-5--5-5-5-5-|
A|-5-5-7-7-2-2-3-3--3-3-3-3-|-5-5-7-7-2-2-3-3--3-3-3-3-|
E|-3-3-5-5-0-0--------------|-3-3-5-5-0-0--------------|
 |
 |Guitar 2
e|-------------------------------------|----------------------------------10-|
B|-12----12-10-12----12-10-13-13-13-12-|-12----12-10-12----12-10-13-13-13----|
G|----12----------12-------------------|----12----------12-------------------|
D|-------------------------------------|-------------------------------------|
A|-------------------------------------|-------------------------------------|
E|-------------------------------------|-------------------------------------|

  Guitar 1
e|---------------------------------|
B|---------------------------------|
G|---------7-7-7-7---------5-5-5-5-|
D|-5-5-5-5-7-7-7-7-7-7-7-7-5-5-5-5-|
A|-5-5-5-5-5-5-5-5-7-7-7-7-3-3-3-3-|
E|-3-3-3-3---------5-5-5-5---------|
 |
 |Guitar 2
e|-10-10-10----------------------------------|
B|----------13-13-13-12-12-12h13p12-10----13-|
G|-------------------------------------12----|
D|-------------------------------------------|
A|-------------------------------------------|
E|-------------------------------------------|

  Guitar 1
e|---------------------------------|
B|---------------------------------|
G|---------7-7-7-7---------5-5-5-5-|
D|-5-5-5-5-7-7-7-7-7-7-7-7-5-5-5-5-|
A|-5-5-5-5-5-5-5-5-7-7-7-7-3-3-3-3-|
E|-3-3-3-3---------5-5-5-5---------|
 |
 |Guitar 2
e|-10-------------15-15h17-17-17-15-----|
B|----13-12h13p12-----------------------|
G|--------------------------------------|
D|--------------------------------------|
A|--------------------------------------|
E|--------------------------------------|

  Guitar 1
e|---------------------------------|
B|---------------------------------|
G|---------x-7-7-7---------5-5-5-5-|
D|-x-5-5-5-x-7-7-7-x-7-7-7-5-5-5-5-|
A|-x-5-5-5-x-5-5-5-x-7-7-7-3-3-3-3-|
E|-x-3-3-3---------x-5-5-5---------|
 |
 |
e|-17-15-14h15p14-------------17-15-14h15p14-------------|
B|----------------15-17-15-15----------------15-17-15-15-|
G|-------------------------------------------------------|
D|-------------------------------------------------------|
A|-------------------------------------------------------|
E|-------------------------------------------------------|


  Guitar 1
e|---------------------------------|
B|---------------------------------|
G|---------7-7-7-7---------5-5-5-5-|
D|-5-5-5-5-7-7-7-7-7-7-7-7-5-5-5-5-|
A|-5-5-5-5-5-5-5-5-7-7-7-7-3-3-3-3-|
E|-3-3-3-3---------5-5-5-5---------|
 |
 |Guitar 2
e|-17-17-17-15-15-15-17-17-17-15-15-15-17-17-17-17-|
B|-------------------------------------------------|
G|-------------------------------------------------|
D|-------------------------------------------------|
A|-------------------------------------------------|
E|-------------------------------------------------|


| /  slide up
| \  slide down
| h  hammer-on
| p  pull-off
| ~  vibrato
| +  harmonic
| x  Mute note
===============================================================================
Related for Video Store tab
Video Store chords by Fm Static