Song name
# A B C D E F G H I J K L M N O P Q R S T U V W X Y Z

Fm Static - Americas Next Freak tab

Intro

e---------------------------------------------------|
b---------------------------------------------------|
g-5---5---5---5-------------------------------------|
d-5-3-5-5-5-3-5-5--5-5-5-5--------------------------|
a-3-3-3-5-3-3-3-5--5-5-5-5--------------------------|
e---1---3---1---3--3-3-3-3--------------------------|
this songs for the emo kids....

e-----------------------------------------------------------------------|
b-----------------------------------------------------------------------|
g-5-5-------------5-5---------------------------------------------------| play twice 2nd time
d-5-5-5-5-7-7-3-3-5-5-5-5-3-3-3-3-3-3-3------------- through end on -5--|
a-3-3-5-5-7-7-3-3-3-3-5-5-3-3-3-3-3-3-3-------------                -5--|
e-----3-3-5-5-1-1-----3-3-1-1-0-1-0-1-0-------------                -3--|

Choras
e----------------------------------------------------|
b----------------------------------------------------|
g-5-5------------------------------------------------|
d-5-5-5-5-7-7-3-3------------------------------------|
a-3-3-5-5-7-7-3-3------------------------------------|
e-----3-3-5-5-1-1------------------------------------|

i wont be americas next freak.....


hope you like it. it was my first tab enjoy
Tap to rate this tab
# A B C D E F G H I J K L M N O P Q R S T U V W X Y Z