Song name
# A B C D E F G H I J K L M N O P Q R S T U V W X Y Z

Foals - Two Steps Twice tab

-----------------------------------------------------------------------
			     Two Steps, Twice - Foals
-----------------------------------------------------------------------
Tabbed by: Sam Ploog

Tuning: EADGBe

== INTRO ==

Guitar 1

e|-----13---------------|
B|-15--------------15---|
G|-------------12-------| Repeat  the 12s are muted slightly on the CD
D|---------12-----------|
A|----------------------|
E|----------------------|

Guitar 2  after Guitar 1 has repeated 8 times:

e|--------------------------------------------------------------------|
B|-15-----------------------------------------------------------------|
G|-----------------------14-------------------------------------------|
D|-----------------------------------------------12-------------------|
A|--------------------------------------------------------------------|
E|--------------------------------------------------------------------|

(Guitar 1s phrase should have repeated once on each note)

Guitar 1

e|-----13---------------|
B|-15--------------15---|
G|-------------12-------| Continue to repeat 
D|---------12-----------|
A|----------------------|
E|----------------------|

Guitar 2  when guitar 1 has repeated a further 9 times (just after the bass comes in):

e|----------------------|
B|-15-15-15-15-15-15-15-|
G|----------------------| repeat 6 times then:
D|--------------------- |
A|----------------------|
E|----------------------|

e|-17--13--15--18-------|
B|-----------------15---|
G|----------------------| repeat 8 times then changes slightly:
D|----------------------|
A|----------------------|
E|----------------------|



e|-17--13--15--18-------| repeat 4 times, stop half way through the
B|----------------15----| fourth time, then let guitar 1 finish                 
G|----------------------| its phrase before continuing. Do this 3  
D|----------------------| times, stop then come back in with:                
A|----------------------| 
E|----------------------| 

Guitar 2 

e|------17--13--15------|
B|------------------15--|
G|----------------------| the singing should then come in:
D|----------------------|
A|----------------------|
E|----------------------|



== VERSE ==  (a sun, a sign, a dance step for two etc)

Guitar 1

e|-----13---------------|
B|-15--------------15---|
G|-------------12-------| Repeat throughout first singing part
D|---------12-----------|
A|----------------------|
E|----------------------|

Guitar 2

e|-17--13--15--18-------|
B|-----------------15---|
G|----------------------| Repeat throughout first singing part
D|----------------------|
A|----------------------|
E|----------------------|

To finish this singing part (sun steps this dance is for you):

Guitar 1+2

e|------------------------------|
B|------------------------------|
G|--14--14--14--14--14--14--14--|
D|------------------------------|
A|--12--12--12--12--12--12--12--|
E|------------------------------|




== BRIDGE ==

Guitar 1

e|----------------------|
B|----------------------|
G|----------------------|
D|--12-12-12-12-12-12---| after a few times guitar 2 comes in:
A|----------------------|
E|----------------------|

Guitar 2

e|------------------------------------------|
B|------------------------------------------|
G|------------------------------------------| repeat twice then stop as 
D|--0h12--0h3--0h5--0h7--0h12--0h3--0h5--0--| the chanting starts
A|------------------------------------------|
E|------------------------------------------|

Guitar 1

e|----------------------|
B|----------------------|
G|----------------------|
D|--12-12-12-12-12-12---| keep repeating throughout the chanting
A|----------------------|
E|----------------------|

Guitar 2  comes in after a while

e|-------------------------------------------------------------------|
B|-------------------------------------------------------------------|
G|-------------------------------------------12-12-14-14-14-14-14-14-|
D|-12-12-12-12-12-12-12-12-12-12-12-12-15-15-------------------------|
A|-------------------------------------------------------------------|
E|-------------------------------------------------------------------|

e|--------------------------------|
B|--------------------------------|
G|-14-14-14-14-14-14-12-12--------|
D|-------------------------15-15--|
A|--------------------------------|
E|--------------------------------|





== CHORUS ==   (thats one step two step dance step etc)

Guitar 1 (not sure about this)

e|-----------------------------|
B|-------13----------13--------|
G|-----------------------------| repeated  this sounds a bit strange 
D|-12----------12----------12--| on its own but it fits in with Guitar 
A|-----------------------------| 2 on the CD
E|-----------------------------|

Guitar 2  continues from bridge

e|-------------------------------------------------------------------|
B|-------------------------------------------------------------------|
G|-------------------------------------------12-12-14-14-14-14-14-14-|
D|-12-12-12-12-12-12-12-12-12-12-12-12-15-15-------------------------|
A|-------------------------------------------------------------------|
E|-------------------------------------------------------------------|

e|--------------------------------|
B|--------------------------------|
G|-14-14-14-14-14-14-12-12--------|
D|-------------------------15-15--|
A|--------------------------------|
E|--------------------------------|

I think Guitar 2s part changes slightly as the chorus goes on, into this:

e|-------------------------------------------------------------------|
B|-------------------------------------------------------------------|
G|-------------------------------------------12-12-14-14-14-14-14-14-|
D|-12-12-12-12-12-12-12-12-12-12-12-12-15-15-------------------------|
A|-------------------------------------------------------------------|
E|-------------------------------------------------------------------|

e|------------------------------|
B|---13--------------------13---|
G|-14-14-14-14-14-14-14-14------|
D|------------------------------|
A|------------------------------|
E|------------------------------|

I think the part at the end is like this:

Guitar 1				Guitar 2

e|-------------------------------|   e|-10-10-10-10-10-13-10-10-10-10-|
B|-------------------------------|   B|-------------------------------|
G|-------------------------------|   G|-------------------------------|
D|-12-12-12-12-12-15-12-12-12-12-|   D|-------------------------------|
A|-------------------------------|   A|-------------------------------|
E|-------------------------------|   E|-------------------------------|



== LYRICS ==

A sun, a sign, a sun, a dance step for two,
A sun, a sign, a dance step for two,
A sun, a sign, a dance step for two,  			(VERSE)
A sun, a sign, a dance step for two,
Thats too far not to swim (x12)

Sun steps this dance is for you



Thats one step, one step, two steps,
Thats two steps, two steps, speedbikes,
Thats one step, one step, two steps,			(CHORUS)
Thats two steps, dance step, speedbikes,
Thats one sign, one sign, one sign,
Thats one sign, two steps, speedbikes,
Lets swim, lets swim, lets swim this off,
Lets swim, lets swim, lets swim this off.

(Repeats with slight variations until the end)
Tap to rate this tab
# A B C D E F G H I J K L M N O P Q R S T U V W X Y Z