Song name
# A B C D E F G H I J K L M N O P Q R S T U V W X Y Z

Foals - Brazil Is Here tab

Help us improve GuitareTab! Take a short survey!
Intro
e|--------------------------------------------------------------------------|
B|--------------------------------------------------------------------------|
G|--------------------------------------------------------------------------|
D|------7-7----7------7-7----7----x4----------------------------------------|
A|-----------------------------8--------------------------------------------|
E|--------------------------------------------------------------------------|

Verse
e|--------------------------------------------------------------------------|
B|--------------------------------------------------------------------------|
G|----------------------------5--7--5---------------------------------------|
D|------7---7----7-7---7---7------------------------------------------------|
A|--------8---7------5---5--------------------------------------------------|
E|--------------------------------------------------------------------------|

Work out how many times you have to do that and your pretty much done.

The very first bit is probably Edwin on his Korg but if not-

A|----17-----17-------17---------|
E|-------15------15--------15----|

Repeat how ever many.

Hope This is good for y'all.

Related for Brazil Is Here tab