Song name
# A B C D E F G H I J K L M N O P Q R S T U V W X Y Z

Foals - Xxxxxx tab

E|------10------10---10------10---10-----10---10----|
B|----13---13-13---13------13---13-----13---13------|
G|--------------------------------------------------|
D|--------------------------------------------------|
A|--------------------------------------------------|
E|--------------------------------------------------|

^ That's repeated until 1:12 when this comes in:

E|---------------------------------------------------|
B|---------17----------------------------------------|
G|----14-17------14-17-16----16-17-14----14-17-------|
D|---------------------------------------------17----|
A|---------------------------------------------------|
E|---------------------------------------------------|

^ That's repeated until the end

At 1:35 the other guitarist comes in with this:

E|------17--17--15-----------------------------------|
B|----15--15--------17-15----15-17-------15-17-------|
G|---------------------------------17----------17----|
D|---------------------------------------------------|
A|---------------------------------------------------|
E|---------------------------------------------------|

^ That's repeated until the end too
Tap to rate this tab
# A B C D E F G H I J K L M N O P Q R S T U V W X Y Z