Song name
# A B C D E F G H I J K L M N O P Q R S T U V W X Y Z

Foals - Blue Blood tab

Amazing song off the new album, this is just a rough guess of whats played
I tabbed this from a couple of live videos so it may differ from the studio version

Intro

Yannis
e|------------12-------------------|
B|14--14--14------14--14--14--12---|
G|--14--14--14--14--14--14--14-----|
D|---------------------------------|
A|---------------------------------|
E|---------------------------------|

Jimmy - Joins in later
e|-------------------------------|
B|14--14--14--12--14--14--14--12-|
G|14--14--14--14--14--14--14--14-|
D|-------------------------------|
A|-------------------------------|
E|-------------------------------|

Verse 1

Yannis - .=palm muted
  .....................          .....................
e|14-14-14-14--14-14-14-121212---14-14-14-14--14-14-14-17171714-|
B|----------------------------14--------------------------------|
G|--------------------------------------------------------------|
D|--------------------------------------------------------------|
A|--------------------------------------------------------------|
E|--------------------------------------------------------------|

Jimmy plays the same as the Intro

Chorus

Both Guitars
e|-------------------------------------------------------------------------------|
B|-------------------------------------------------------------------------------|
G|-------------------------------------------------21-----------------21---------|
D|18-19-19/21--------18-19-19/21--------18-19-19/21--------18-19-19/21-----------|
A|------------19-21--------------19-21---------------19-21--------------19-21----|
E|-------------------------------------------------------------------------------|

Verse 2 is the same as verse 1, Yannis changes what he plays a bit but only the fast 
notes at the end of his riffs

Chorus again

Break

Yannis
e|-------14-------14-------14-------14-|
B|-----14-------14-------14-------14---|
G|14/16----14/16----14/16----14/16-----|
D|-------------------------------------|
A|-------------------------------------|
E|-------------------------------------|

I cant work out what Jimmy plays here until I hear the studio version

Outro

Yannis - Strum this chord for a bit then go back to the Break riff
e|14-|
B|14-|
G|16-|
D|---|
A|---|
E|---|

Jimmy - Again because I've tabbed this from a couple of live recordigns its hard to hear 
part so im leaving it for the time being

Chorus again

Intro again to finish

Beaut of a song, cant wait for the album
Tap to rate this tab
 
# A B C D E F G H I J K L M N O P Q R S T U V W X Y Z