Foals - Two Steps Twice tab

The other tab was pretty good, but I reckon i can do a little bit better..

Intro

Jimmy += harmonic

  + +         + +         + +         + +
e|---------13----------13----------13----------13-|
B|----15-15-------15-15-------15-15-------15-15---|
G|--12----------12----------12----------12--------|
D|12----------12----------12----------12----------|
A|------------------------------------------------|
E|------------------------------------------------|

Yannis - joins in later
e|12~-------|
B|----------|
G|---12~----|
D|------12~-|
A|----------|
E|----------|

e|-------------------------------------|
B|15--15--15--15--15--15--15--15--15---|
G|-------------------------------------|
D|-------------------------------------|
A|-------------------------------------|
E|-------------------------------------|

For this part, Yannis stops and starts at different times, its all this riff
and always ends on those last 2 notes its just shorter sometimes
e|17--15-18--17--15-18--17--15-18--17--15-18--17--15-18--17--15-18--17--15-18--17----|
B|--18---------18---------18---------18---------18---------18---------18----------18\-|
G|------------------------------------------------------------------------------------|
D|------------------------------------------------------------------------------------|
A|------------------------------------------------------------------------------------|
E|------------------------------------------------------------------------------------|

Then
e|17--------17----------------17---------17-|
B|--18-17-----18-17-----18-17------18-17----|
G|-------17--------17-17---------17---------|
D|------------------------------------------|
A|------------------------------------------|
E|------------------------------------------|

Verse

Jimmy keeps playing the same thing as he does in the Intro

Yannis
e|----17----17----17----17-|
B|--17----17----17----17---|
G|17----17----17----17-----|
D|-------------------------|
A|-------------------------|
E|-------------------------|

After playing that for a while he changes to this
e|17--------17---------17----------------17-|
B|--18-17-----18-17------18-17-----18-17----|
G|-------17---------17--------17-17---------|
D|------------------------------------------|
A|------------------------------------------|
E|------------------------------------------|

Breakdown...

Jimmy
e|--------------------------------------------------------------|
B|--------------------------------------------------------------|
G|--------------------------------------------------------------|
D|12-12-1212-12-1212-12-1212-12-1212-12-1212-12-1212-12-1212-12-|
A|--------------------------------------------------------------|
E|--------------------------------------------------------------|

Then becomes
e|-------------------------------------------------------------------|
B|-------------------------------------------------------------------|
G|-----------------------------1212-14-14-1414-14-14-----------------|
D|12-12-1212-12-1212-12-12-1515--------------------------------------|
A|--------------------------------------------------12-12-1212-12-12-|
E|-------------------------------------------------------------------|

Yannis

When they play live, Jimmy plays his first riff for longer and Yannis does this palm muted
e|-------------------------------------------------------|
B|-------------------------------------------------------|
G|14-171717-14--14-171417-14--14-171717-14--14-171417-14-|
D|-------------------------------------------------------|
A|-------------------------------------------------------|
E|-------------------------------------------------------|

The studio version goes straight to this
e|---------------------------------------|
B|---------------------------------------|
G|---------------------------------------|
D|0h12---0h3-0h5-0h7---0h12---0h3-0h5-0~-|
A|---------------------------------------|
E|---------------------------------------|

Then palm muted
e|---------------------------------------------------------------|
B|---------------------------------------------------------------|
G|---------------------------------------------------------------|
D|12-10-12--3-0000--12-10-12--3-0000--12-10-12--3-0000--000--777-|
A|---------------------------------------------------------------|
E|---------------------------------------------------------------|

Chorus

Jimmy
e|--------------------------------------------------------------------|
B|--------------------------------------------------------------------|
G|-----------------------------1212-14-14-1414-14-14------------------|
D|12-12-1212-12-1212-12-12-1515---------------------------------------|
A|---------------------------------------------------12-12-1212-12-12-|
E|--------------------------------------------------------------------|

Live he sometimes does something like this instead
e|------------------------------------------------------------------|
B|------------------------------------------------------------------|
G|------------------------1414-1212---------------------------------|
D|12-12-1212-12-1212-12-12---------15-15-1515-15-1515-15-15-1212-12-|
A|------------------------------------------------------------------|
E|------------------------------------------------------------------|

Yannis - This is really hard to hear, he plays something like this whilst he sings
e|--------------------------------------|
B|13---------13-------13---------13-----|
G|----12---14----12-------12---14----12-|
D|--15---------15-------15---------15---|
A|--------------------------------------|
E|--------------------------------------|

For me, its near impossible to hear what he plays during the heavyish bits
between Choruses, so I havent tabbed it, if anyone thinks they know
then please tell me :)

Ending

Jimmy
e|----------------------------------------------------------------|
B|---------------------------1515----------------------------1313-|
G|14-14-14-14--14-14-14-14-14-----14-14-14-14--14-14-14-14-14-----|
D|----------------------------------------------------------------|
A|----------------------------------------------------------------|
E|----------------------------------------------------------------|

Yannis
e|------------------------------------------------------------|
B|------------------------------------------------------------|
G|------------------------------------------------------------|
D|12-12-12-12--12-12-12-12-12---12-12-12-12--12-12-12-12-12---|
A|------------------------------------------------------------|
E|------------------------------------------------------------|

There we are!!

I admit the Intro and Verses may be hard to read but im pretty sure theyre correct

Hopefully this is helpful, and if anyone knows the missing bit then let me know..thanks :)
Tap to rate this tab
 
# A B C D E F G H I J K L M N O P Q R S T U V W X Y Z