Song name
# A B C D E F G H I J K L M N O P Q R S T U V W X Y Z

Foals - One Shm tab

-------------------------------------------------------------------------------
                  One (Swedish House Mafia Cover)- Foals
-------------------------------------------------------------------------------
Tabbed by: scottscottscott
Email:tullochlad@hotmail.co.uk

Tuning:Standard

Yannis//
Intro: Bass Riff occurs twice then this comes in -
e|---------------------------------------------------------------------------|
B|---------------------------------------------------------------------------|
G|---------------------------------------------------------------------------|
D|---------------------------------------------------------------------------| x2
A|--12-10-8-7-8-8-8-8-8s5-------12-10-8-7-10-10-10-10-10s5-------------------|
E|---------------------------------------------------------------------------|
Verse: Play randomly when you hear them in song.. basic rhythm
e|---10----------------------------------------------------------------------|
B|---10----------------------------------------------------------------------|
G|---10----------------------------------------------------------------------|
D|---12----------------------------------------------------------------------|
A|---10----------------------------------------------------------------------|
E|---------------------------------------------------------------------------|

Repeat Intro Bit Again 
Then repeat chord again for singing.
For built up bit in the middle, play chord again to correct mad funky rhythm.
Repeat intro again to finish until necessary.

Jimmy//
Intro: 
e|---------------------------------------------------------------------------|
B|---------------------------------------------------------------------------|
G|---14-12-10-9-10-10-10-10-10s7------14-12-10-9-12-12-12-12-12s7------------| x2
D|---------------------------------------------------------------------------|
A|---------------------------------------------------------------------------|
E|---------------------------------------------------------------------------|

Verse: repeat intro until midway through verse where in escalates to
e|---------------------------------------------------------------------------|
B|---------------------------------------------------------------------------|
G|--7-9-10-12-10-9-7-5-222-0-2-----------------------------------------------|
D|---------------------------------------------------------------------------|
A|---------------------------------------------------------------------------|
E|---------------------------------------------------------------------------|

Bridge: repeat as necessary rhythm
e|---------------------------------------------------------------------------|
B|---------------------------------------------------------------------------|
G|---------------------------------------------------------------------------|
D|---------------------------------------------------------------------------|
A|-12-12--12-12-12-----------------------------------------------------------|
E|---------------------------------------------------------------------------|
Then Intro again
Then Verse Again

Before Mad Funky Part play
e|---------------------------------------------------------------------------|
B|---------------------------------------------------------------------------|
G|---12-12-12-12-15-15-15-15-15-1515-14-14-14-14-12-12-12-12-----------------| x2
D|---------------------------------------------------------------------------|
A|---------------------------------------------------------------------------|
E|---------------------------------------------------------------------------|

And Hooray for us all we've got a tab,
tell me if you feel ive gone wrong..
big love x
************************************

| s   slide up
| h   hammer-on
| p   pull-off
| ~   vibrato
| +   harmonic
| x   Mute note
| b   Bend

************************************
Tap to rate this tab
 
# A B C D E F G H I J K L M N O P Q R S T U V W X Y Z