Song name
# A B C D E F G H I J K L M N O P Q R S T U V W X Y Z

Foals - The Forked Road tab

Artist: Foals
Song: The Forked Road
Album: Miami 7"


Guitar 1:
e------------------------------------------------|
a------------------------*-----------------------|
d-----12--------------12-16-------------12-------|
g---14-----x4-------14--------x3------14---16----|
b-15--------------15----------------15-----------|
e------------------------------------------------|

*I like to put a capo on 12 and switch the 16 on the D string to open on the A string so 
its a slow drag across the strings, and eliminating mistakenly muted strings. (Yeah, 
I'm cheating.)

e-------------------------------------------------|
a-------------------------------------------------|
d-----12--------------12-16-------------12--------|
g---14-----x4-------14----------------14----16 x3-|
b-15--------------15----------------15------------|
e-------------------------------------------------|

Guitar 2 (Tremolo):
e-19~17~14~~~~15~~~~12~~~~~~|
a---------------------------|
d---------------------------|
g---------------------------|
b---------------------------|
e---------------------------|

You can catch the rhythm of the Tremolo part from the song, I tried to represent it as 
best I could haha.

Guitar 1 is most likely Yannis and guitar 2 would be Jimmy.

This is all I have so far, any comments with any additions are more than welcome. 
Hopefully add more to this later on. xDemagog
Tap to rate this tab
 
# A B C D E F G H I J K L M N O P Q R S T U V W X Y Z