Song name
# A B C D E F G H I J K L M N O P Q R S T U V W X Y Z

Foals - My Number tab

Artist  :       Foals
Song    :       My number
Album   :       Holy Fire


Tabbed by Dave Curtis
Any questions/corrections to Sonicboombox@Yahoo.com

Key
\Slide up



Palm muted and tonnes of delay throughout also played by two guitars

Intro
E--------------------------------------------------------------------------|
B-----17-17----------------------17-17-------------------19-19-17----------|
G-16--------18-16-18-18----16-18-------18-16-16-18-18-18----------18-16-18-|
D--------------------------------------------------------------------------|
A--------------------------------------------------------------------------|
e--------------------------------------------------------------------------|


E-----------------------------------------------------|
B-------------17----------------17-17-------------19\-|
G-16-18-16-18----18-16-18-18-18-------18-16-18-18-18\-|
D-----------------------------------------------------|
A-----------------------------------------------------|
e-----------------------------------------------------|


E-----------------------------------------------------|
B-------17-17-------------------19-19-17----------17\-|
G-16-18-------18-16-16-18-18-18----------18-16-18-16\-|
D-----------------------------------------------------|
A-----------------------------------------------------|
e-----------------------------------------------------|


E-----------------------------------------------------|
B-------------17----------------17-17-------------17--|
G-16-18-16-18----18-16-18-18-18-------18-16-18-18-18\-|
D-----------------------------------------------------|
A-----------------------------------------------------|
e-----------------------------------------------------|
Tap to rate this tab
 
# A B C D E F G H I J K L M N O P Q R S T U V W X Y Z