Song name
# A B C D E F G H I J K L M N O P Q R S T U V W X Y Z

Foals - Inhaler tab

-----------------------------------------------------------------------------
                             Inhaler - Foals
-----------------------------------------------------------------------------
Tabbed by: Caiorz

Tuning: Drop D (DADGBE)

This is my first tab, sounds pretty good to me :) 
Listen to the song for timings if you're unsure 


INTRO w/ tape echo
e|-------------------------|-----------------------------|
B|-------------------------|-----------------------------|
G|--10------10--10---------|--10------10-10h12p10--------|
D|--10--12--10--10--12\----|--10--12--10-10h12p10--12\---|
A|------12----------12\----|------12---------------12\---|
D|-------------------------|-----------------------------|

e|-------------------------|-----------------------------|  
B|--10---------------------|-----------------------------|
G|--10--12--10--12---------|--10------10-10h12p10--------|
D|------12--10--12--12\----|--10--12--10-10h12p10--12\---|   x2
A|------------------12\----|------12---------------12\---|
D|-------------------------|-----------------------------|


VERSE w/ tape echo
e|-------------------------|-----------------------------|
B|-------------------------|-----------------------------|
G|--10------10--10---------|--10------10-10h12p10--------|
D|--10--12--10--10--12\----|--10--12--10-10h12p10--12\---|
A|------12----------12\----|------12---------------12\---|
D|-------------------------|-----------------------------|

e|-------------------------|-----------------------------|
B|--10---------------------|-----------------------------|
G|--10--12--10--12---------|--10------10-10h12p10--------|
D|------12--10--12--12\----|--10--12--10-10h12p10--12\---|
A|------------------12\----|------12---------------12\---|   x4
D|-------------------------|-----------------------------|

Guitar 2 
e|-----------------------------------------|
B|----------15--15--------------15--15-----|
G|------14------------------14-------------|
D|--12--------------12--12-------------12--|
A|-----------------------------------------| (play on 3nd + 4th verse repeat)
D|-----------------------------------------|


PRE CHORUS
e|-------------------------------------------------|
B|-------------------------------------------------|
G|-------------------------------------------------|  
D|-12-12-12-12-12-12-12-12-12-12-12-12-12-12-12-12-|
A|-------------------------------------------------|
D|-------------------------------------------------|

e|-------------------------------------------------|
B|-------------------------------------------------|
G|-------------------------10-10-10-10-12-12-12-12-|   
D|-12-12-12-12-12-12-12-12-------------------------|   all x4
A|-------------------------------------------------|
D|-------------------------------------------------|




e|-------------------------------------------------|
B|-------------------------------------------------|
G|-14-14-14-14-14-14-14-14-14-14-14-14-14-14-14-14-|
D|-------------------------------------------------|
A|-------------------------------------------------|
D|-------------------------------------------------|


e|-------------------------------------------------|
B|-------------------------13-13-13-13-15-15-15-15-|
G|-14-14-14-14-14-14-14-14-------------------------|
D|-------------------------------------------------|  all x3
A|-------------------------------------------------|
D|-------------------------------------------------|



e|-------------------------------------------------|
B|-------------------------------------------------|
G|-14-14-14-14-14-14-14-14-14-14-14-14-14-14-14-14-|
D|-------------------------------------------------|
A|-------------------------------------------------|
D|-------------------------------------------------|

e|-------------------------------------------------|
B|-------------------------15-15-15-15-17-17-17-17-|
G|-14-14-14-14-14-14-14-14-------------------------|
D|-------------------------------------------------|
A|-------------------------------------------------|
D|-------------------------------------------------|



CHORUS  w/ overdrive
e|------------------------------------|
B|------------------------------------|
G|------------------------------------|
D|----------------3-------------------|
A|----------3--5-----5--3-------------|
D|-0--3--5-----------------3-5-3-5-3--|

e|------------------------------------|
B|------------------------------------|
G|------------------------------------|
D|----------------3-----5--3-5-3-5-3--|   All x2
A|----------3--5-----5----------------|
D|-0--3--5----------------------------|



Repeat from after Intro

After 2nd chorus:

w/ palm mute
e|-----------------------|
B|-----------------------|
G|------------------10/--|
D|-12-12--12-12-12-------| x8    
A|-----------------------|
D|-----------------------|


e|---------------------------------|
B|--------------10-------------10--| 
G|------10--12----------10-12------|   Repeat with varying rhythm
D|--12--------------12-------------|   x10
A|---------------------------------|
D|---------------------------------|

And then 
e|-------------------------------------|
B|-------------------------------------|
G|--------12-----12---------12------12-|
D|-10-10-----10------10-10------10-----|  x5
A|-------------------------------------| 
D|-------------------------------------|

e|-------------------------------------|
B|----10----------10-------------------|
G|-12-------10-12-------10-------------|
D|-------12----------12----12/---------|  
A|-------------------------------------| 
D|-------------------------------------|


Please rate and comment :)


************************************

| /   slide up
| \   slide down
| h   hammer-on
| p   pull-off
| ~   vibrato
| +   harmonic
| x   Mute note
| b   Bend
| pb  Pre-bend
| br  Bend release
| pbr Pre-bend release
| brb Bend release bend

************************************
Tap to rate this tab
 
# A B C D E F G H I J K L M N O P Q R S T U V W X Y Z