Song name
# A B C D E F G H I J K L M N O P Q R S T U V W X Y Z

Foals - Late Night tab

-------------------------------------------------------------------------------
                             Late Night- Foals
-------------------------------------------------------------------------------
Tabbed by:Caiorz

Tuning: Standard (EADGBE)

Listen to the song for timings, and enjoy this awesome song!

0:53 palm mute
e|----------------------------------------------------------------|
B|----------------------------------------------------------------|
G|----------------------------------------------------------------|
D|----------------------------------------------------------------|
A|----------------------------------------------------------------|
E|-8h10-10-10--8h10-10-10--8h10-10-10--8h10-10-10-----------------|

1:56
e|----------------------------------------------------------------|
B|----------------------------------------------------------------|
G|----------------------------------------------------------------|
D|----------------------------------------------------------------|
A|----------------------------------------------------------------|  x2
E|-8--10-10---8--10-10---8--10-10---8--10-10----------------------|

e|----------------------------------------------------------------|
B|------------------------------------------------------------- --|
G|--------12p10---------------------------------------------------|
D|------------------12p10-----------------------------------------|
A|------------------------12--10h12-12-12----10h12-12-12-12\------|
E|----------------------------------------------------------------|

e|----------------------------------------------------------------|
B|----------------------------------------------------------------|
G|--------12p10----------------------------------------10h12p10---|
D|------------------12p10---------------------------------------12|
A|------------------------12--10h12-12-12----10h12-12-------------|
E|----------------------------------------------------------------|

e|----------------------------------------------------------------|
B|----------------------------------------------------------------|
G|-14p12p10---------12-12p10--------------------------------------|
D|----------12----------------12----------------------------------|
A|-------------------------------10h12-12-12---10-12--10-12-------|
E|----------------------------------------------------------------|

e|---------------------------------------------------------------------------|
B|---------------------------------------------------------------------------|
G|---------------------------------------------------------------------------|
D|------------------------------------10--10-10-10-10--10-12-12-12-10h12-----|
A|-10-12--10-12--10-12--12-12-12-12------------------------------------------|
E|---------------------------------------------------------------------------|


2:21
e|--------------------------------|
B|--------------------------------|       repeat for ages
G|-----------12-----------12------|       Let the G ring
D|-----12-----------12------------|
A|--10----10----10-----10---------|   
E|--------------------------------|

Solo
4:06
e|---------------------------|     |-----------------------------------------|
B|---------------------------|     |-----------------------------------------|
G|---------------------------|     |-----------------------------------------|
D|---------------------------| x3  |-----------------------------------------|
A|---------------------------|     |---------------------10p8----------------|
E|-8h10-10-10-8-8h10-10-10-8-|     |-10~--10~--10~--10~---------10-----------|

e|-X-X-X-X--X----------------------------------------------------------------|
B|-6-6-8-6--6--6/8--6--------------------------------------------------------|
G|-X-X-X-X--X----------5-5-7-7-7~-7~-7~-7~-7-7-7-7--5-5-5-5-5-5-7-7-7-7-77---|
D|---------------------------------------------------------------------------|
A|---------------------------------------------------------------------------|
E|---------------------------------------------------------------------------|

e|-------------------------------------------------|
B|----------------------X-------------------X------|
G|----------------------X-------------------X------|
D|----------------------X-------------------X------|
A|-------------------------------------------------|
E|-10~-10~-10~-10~-10~-10--10~-10~-10~-10~-10------|

                             Palm mute
e|-X---X--X--X--X---/13---| |--13-13--13--13-13--13--|    
B|-13--13-13-15-15--------| |------------------------|    
G|-X---X--X--X--X---------| |------------------------|    
D|------------------------| |------------------------|x3  
A|------------------------| |------------------------|    
E|------------------------| |------------------------|    

e|--13-13--13--13-13--15--13-13----13-13-------|
B|------------------------------15-------15----|
G|---------------------------------------------|
D|---------------------------------------------|
A|---------------------------------------------|
E|---------------------------------------------|


e|-13h15p13--------21------13-------13h15p13-------13----13---13--|
B|----------15-15------15------15------------15-15-----15---15----|
G|----------------------------------------------------------------|
D|----------------------------------------------------------------|
A|----------------------------------------------------------------|
E|----------------------------------------------------------------|

e|-13h15p13-------------------------------------------------------------------|
B|----------15-15--13-15--13-15--13-15--13-15--13-15--13-15--13-15--13-15--15-|
G|----------------------------------------------------------------------------|
D|----------------------------------------------------------------------------|
A|----------------------------------------------------------------------------|
E|----------------------------------------------------------------------------|

e|-15-13----------------------------------------------------------|
B|-------15-13--13--15-13-----------------------------------------|
G|------------------------14-12--12--14-12-10---------10~---------|
D|--------------------------------------------12--12--------------|
A|----------------------------------------------------------------|
E|----------------------------------------------------------------|

e|----------------------------------------------------------------|
B|----------------------------------------------------------------|
G|-14-12-10---------12-10-----------------------------------------|
D|----------12--12--------12-10--10--12-10------------------------|
A|-----------------------------------------12-10--10/12~----------|
E|----------------------------------------------------------------|

e|----------------------------------------------------------------|
B|----------------------------------------------------------------|
G|----------------------------------------------------------------|
D|----------------------------------------------------------------|
A|----------------------------------------------------------------|
E|-/10-10-10~-----/10-10-10~-----/10-10-10~---------10---13---15--|

e|-------------------------------------------|    |----------------------------------------|
B|-------------------------------------------|    |----------------------------------------|
G|-------------------------------------------|    |----------------------------------------|
D|-------------------------------------------| x3 |----------------------------------------|
A|-------------------------------------------|    |----------------------------------------|
E|-8--10-10---8--10-10---8--10-10---8--10-10-|    |-8--10-10---8--10-10---8--10-10---8--10-|



************************************

| /   slide up
| \   slide down
| h   hammer-on
| p   pull-off
| ~   vibrato
| +   harmonic
| x   Mute note
| b   Bend
| pb  Pre-bend
| br  Bend release
| pbr Pre-bend release
| brb Bend release bend

************************************
Tap to rate this tab
# A B C D E F G H I J K L M N O P Q R S T U V W X Y Z