Song name
# A B C D E F G H I J K L M N O P Q R S T U V W X Y Z

Foals - Providence tab

-----------------------------------------------------------------------------
                             PROVIDENCE - Foals
-----------------------------------------------------------------------------
Tabbed by: Whitey
E-mail: josh.whitehurst@gmail.com

If anyone knows any more of it then post it on the corrections and I'll update the tab.

Peace x

Tuning: Drop D (DADGBe)

Intro - put a phaser or some reverb on it, make it sound spacy

e|---------------------------------------------------------------------------|
B|---------------------------------------------------------------------------|
G|---0---0-------0-----------------------------------------------------------|
D|---5---5-------3-----------------------------------------------------------|
A|---------------------------------------------------------------------------|
E|---------------------------------------------------------------------------|



Verse - distortion

Repeat loads of times

e|---------------------------------------------------------------------------|
B|---------------------------------------------------------------------------|
G|---------------------------------------------------------------------------|
D|--3-5------3-5------3-5----------------------------------------------------|
A|--3-5------3-5------3-5----------------------------------------------------|
E|--3-5------3-5------3-5----------------------------------------------------|

Bridge - a lot of times

e|---------------------------------------------------------------------------|
B|---------------------------------------------------------------------------|
G|---------------------------------------------------------------------------|
D|---5-5-5-5-5-5-8-8-8-8-8-5-5-5-5-5-8-8-8-8-8-------------------------------|
A|---------------------------------------------------------------------------|
E|---------------------------------------------------------------------------|
Tap to rate this tab
# A B C D E F G H I J K L M N O P Q R S T U V W X Y Z