Song name
# A B C D E F G H I J K L M N O P Q R S T U V W X Y Z

Foals - Spanish Sahara tab

Capo: no

  F       Am      C       Am  G

E|1-------5-------8-------5---3---|
A|--------------------------------|
D|--------------------------------|    - intro
G|2-------5-------9-------5---4---|
B|--------------------------------|
e|--------------------------------|


E|1-------1-------
A|----------------
D|----------------
G|----2-------2---
B|---------------- x4 and do that with each chord stated above only the last
e|---------------- 2 chords, you should (x2) instead as they are halfs.

-----------------------------------------------------------------------------
this bit after has been copied and pasted by previous tab. 
-----------------------------------------------------------------------------
Second guitar tremolo picks this chord towards the end of the chorus
e|-----------------------------------------------|
B|--13-13-13-13-13-13-13-------------------------|
G|--14-14-14-14-14-14-14-------------------------|
D|-----------------------------------------------|
A|-----------------------------------------------|
E|-----------------------------------------------|

Second Verse:
-------------
Second guitar adds some volume swirls:
e|--17~-X4--15~-X4-------------------------------|
B|-----------------------------------------------|
G|-----------------------------------------------|
D|-----------------------------------------------|
A|-----------------------------------------------|
E|-----------------------------------------------|

Build after second chorus
-------------------------
Yannis plays this guitar part
e|-----------------------------------------------|
B|-----------------------------------------------|
G|-17-17---16-16-16-14-14-14---------------------|
D|---------------------------15--17--14------X2--|
A|-----------------------------------------------|
E|-----------------------------------------------|

e|-----------------------------------------------|
B|-----------------------------------------------|
G|-17-17---16-16-16-14-14-14-16-16-16------------|
D|-----------------------------------------------|
A|-----------------------------------------------|
E|-----------------------------------------------|

e|-----------------------------------------------|
B|-----------------------------------------------|
G|-17-17---16-16-16-17-17---16-16-16-------------|
D|-----------------------------------------------|
A|-----------------------------------------------|
E|-----------------------------------------------|

Then, another guitar overdubs that riff
e|----------------------------17-15--------------|
B|-17-17---15-15-15-----------------17-----------|
G|------------------17-17-17-----------X2--------|
D|-----------------------------------------------|
A|-----------------------------------------------|
E|-----------------------------------------------|

e|-----------------------------------------------|
B|-17-17---15-15-15-----------15-15--------------|
G|------------------17-17-17--------17-----------|
D|-----------------------------------------------|
A|-----------------------------------------------|
E|-----------------------------------------------|

e|-----------------------------------------------|
B|----15----15-15----15-15----15-15--------------|
G|-17----17-------17-------17--------17----------|
D|-----------------------------------------------|
A|-----------------------------------------------|
E|-----------------------------------------------|

Outro
-----
After the above is played, one guitar repeats this 3 note arrpeggio:

e|-------------------------------------------------|
B|--------17---------------------------------------|
G|-----14------------------------------------------|
D|--17---------------------------------------------|
A|-------------------------------------------------|
E|-------------------------------------------------|

occasionally he will throw in some variations, the
order of these is fairly random, so have some fun experiementing
Var 1
e|-----------------------------------------------|
B|--------18-------------------------------------|
G|-----14----------------------------------------|
D|--17-------------------------------------------|
A|-----------------------------------------------|
E|-----------------------------------------------|

Var 2
e|-----------------------------------------------|
B|--------17----------------15-------------------|
G|-----14------THEN------14----------------------|
D|--15----------------15-------------------------|
A|-----------------------------------------------|
E|-----------------------------------------------|
Tap to rate this tab
# A B C D E F G H I J K L M N O P Q R S T U V W X Y Z