Song name
# A B C D E F G H I J K L M N O P Q R S T U V W X Y Z

Foals - After Glow tab

----------------------------------------------------------------------------
                             After Glow - Foals
----------------------------------------------------------------------------
Tabbed by: PendulumMan24
Tuning: Standard

Couldn't find a decent tab for this on the web so I decided to do it myself! Rate, 
comment and all that! :)

I'll list the structure at the end for the benefit of you lot!

VERSE (0:07 - 0:58) (w/Delay)
e|------------------------------------------------------------|
B|------------------------------------------------------------|
G|-16-16-16-16-16--16-16--16----16-16-16-16-16--16-16--16-----|
D|---------------------------14---------------------------14--|
A|------------------------------------------------------------|
E|------------------------------------------------------------|

e|------------------------------------------------------------|   }
B|------------------------------------------------------------|   }
G|-16-16-16-16-16--16-16--16----16-16-16-16-16--16-16--16-----|   }
D|---------------------------14---------------------------14--|   }
A|------------------------------------------------------------|   }
E|------------------------------------------------------------|   }
                                                                  }  x2
e|------------------------------------------------------------|   }
B|-----------------------------------------------------17-----|   }
G|-17-17-17-17-17--17-17--17----17-17-17-17-17--17-17---------|   }
D|---------------------------14---------------------------14--|   }
A|------------------------------------------------------------|   }
E|------------------------------------------------------------|   }

e|------------------------------------------------------------|
B|------------------------------------------------------------|
G|-16-16-16-16-16--16-16--16----16-16-16-16-16--16-16--16-----|
D|---------------------------14---------------------------14--|
A|------------------------------------------------------------|
E|------------------------------------------------------------|

e|------------------------------------------------------------|
B|------------------------------------------------------------|
G|-17-17-17-17-17--14-14--14-14/11-11-11-11-11--11-11--11-12--|
D|------------------------------------------------------------|
A|------------------------------------------------------------|
E|------------------------------------------------------------|

CHORUS (0:59 - 1:30) (w/Delay)
Guitar 1 (0:59 - 1:30)
e|---------|
B|-5-------|
G|-----4---|  x32
D|---5---5-|
A|---------|
E|---------|

Guitar 2 (1:14 - 1:30)
e|-7---7-10--|   }
B|--8-8-8--8-|   }
G|---9-------|   }
D|-----------|   }
A|-----------|   }
E|-----------|   }
                 } x4
e|-5---5-7--|    }
B|--8-8-8-8-|    }
G|---9------|    }
D|----------|    }
A|----------|    }
E|----------|    }

VERSE 2 (1:31 - 1:57) (w/Delay)
e|------------------------------------------------------------|
B|------------------------------------------------------------|
G|-16-16-16-16-16--16-16--16----16-16-16-16-16--16-16--16-----|
D|---------------------------14---------------------------14--|
A|------------------------------------------------------------|
E|------------------------------------------------------------|

e|------------------------------------------------------------|
B|-----------------------------------------------------17-----|
G|-17-17-17-17-17--17-17--17----17-17-17-17-17--17-17---------|
D|---------------------------14---------------------------14--|
A|------------------------------------------------------------|
E|------------------------------------------------------------|

e|------------------------------------------------------------|
B|------------------------------------------------------------|
G|-16-16-16-16-16--16-16--16----16-16-16-16-16--16-16--16-----|
D|---------------------------14---------------------------14--|
A|------------------------------------------------------------|
E|------------------------------------------------------------|

e|------------------------------------------------------------|
B|------------------------------------------------------------|
G|-17-17-17-17-17--14-14--14-14/11-11-11-11-11--11-11--11-12--|
D|------------------------------------------------------------|
A|------------------------------------------------------------|
E|------------------------------------------------------------|

CHORUS 2 (1:58 - 2:26) (w/Delay)
Guitar 1 (1:58 - 2:26)
e|---------|
B|-5-------|
G|-----4---|  x32
D|---5---5-|
A|---------|
E|---------|

Guitar 2 (2:12 - 2:26)
e|-7---7-10--|
B|--8-8-8--8-|
G|---9-------|  x2
D|-----------|
A|-----------|
E|-----------|

VERSE 3/BUILD UP (2:27 - 2:56) (w/Delay)
Guitar 1 (2:27 - 2:56)
e|-------------------------------------------------------------|
B|-------------------------------------------------------------|
G|-------------------------------------------------------------| x4
D|-14-14-14-14-14-16-16-16-16-16-17-17-17-17-17-19-19-19-19-19-|
A|-------------------------------------------------------------|
E|-------------------------------------------------------------|

Guitar 2 (2:42 - 2:56)
e|----------|
B|----------|
G|-16-------| x16
D|----17-14-|
A|----------|
E|----------|

CLIMAX (2:57 - 3:09)
Guitar 1 (2:57 - 3:09) [Tremelo w/Heavy Reverb]
e|----------|
B|----------|
G|----16----|
D|----------|
A|----------|
E|----------|

Guitar 2 (2:57 - 3:09) [w/Delay]
e|----------|
B|-12-------|
G|---12-----| x16
D|-----14---|
A|----------|
E|----------|

BRIDGE [w/Delay]
Guitar 1 (3:10 - 5:18)
e|----------|
B|-12-------|
G|---12-----| (Repeat until end)
D|-----14---|
A|----------|
E|----------|

Guitar 2 (Solo) [w/Distortion & Reverb] (4:51 - 5:18)
e|----------------------------------------------15------------------------|
B|----------15---------------------------15-------18-16-18-16-16-18-18----|
G|-16-16-16---16-16-16-16-------16-16-16---16-16-----------------------16-|
D|------------------------17-14-------------------------------------------|
A|------------------------------------------------------------------------|
E|------------------------------------------------------------------------|

e|-------------------------------------------------------------------------|
B|-15-13-------------------------------------------------------------------|
G|-------16-16-16-16-----16-16-1716------16--------------------------------|
D|------------------17-14----------17-17---17-16-16-17-16-14-14-14-1416-17-|
A|-------------------------------------------------------------------------|
E|-------------------------------------------------------------------------|

CHORUS/OUTRO (5:20 - 6:09) (w/Delay)
Guitar 1 (5:20 - 5:50)
e|---------|
B|-5-------|
G|-----4---|  x24
D|---5---5-|
A|---------|
E|---------|

Guitar 2 (5:41 - 6:09)
e|-7---7-10--|   }
B|--8-8-8--8-|   }
G|---9-------|   }
D|-----------|   }
A|-----------|   }
E|-----------|   }
                 } x8
e|-5---5-7--|    }
B|--8-8-8-8-|    }
G|---9------|    }
D|----------|    }
A|----------|    }
E|----------|    }

VERSE 1
CHORUS 1
VERSE 2
CHORUS 2
VERSE 3/BUILD UP
CLIMAX
BRIDGE
CHORUS 3/OUTRO

HOPE YOU ENJOYED!! :)

************************************

| /   slide up
| \   slide down
| h   hammer-on
| p   pull-off
| ~   vibrato
| +   harmonic
| x   Mute note
| b   Bend
| pb  Pre-bend
| br  Bend release
| pbr Pre-bend release
| brb Bend release bend

************************************
Tap to rate this tab
# A B C D E F G H I J K L M N O P Q R S T U V W X Y Z