Song name
# A B C D E F G H I J K L M N O P Q R S T U V W X Y Z

Foals - Red Socks Pugie tab

Intro + verse 1

E --------------------------------------------------------------|
B --------------------------------------------------------------|
G --------------------------------------------------------------|
D -----------19-------------------19---------19-----------------| (x2)
A------------------19----17-----------------------19---17---12--|
E---------------------------------------------------------------|

Chorus (x2)  first in palm mute and then play it normally

E ------------------------------------------------------------------|
B ------------------------------------------------------------------|
G ------------------------------------------------------------------|
D ------14-14-14---17-17-17--14-14 -14--17-17-17--14----------------|
A -----------------------------------------------------------17-15--|
E-------------------------------------------------------------------|

E ------------------------------------------------------------------|
B ------------------------------------------------------------------|
G ------------------------------------------------------------------|
D ------14-14-14---17-17-17--14-14 -14--17-17-17--14----------------|
A -----------------------------------------------------------17-15--|
E-------------------------------------------------------------------|

E -----------------------------------------------------------|
B -----------------------------------------------------------|
G -----------------------------------------------------------|
D ------14-14-14---17-17-17--14-14 -14--17-17-17--19--17-14--|
A -----------------------------------------------------------|
E------------------------------------------------------------|

E ----------------------------------------------------------------|
B ----------------------------------------------------------------|
G ----------------------------------------------------------------|
D ------14-14-14---17-17-17--14-14 -14--17-17-17--14--------------|
A ---------------------------------------------------------17-15--|
E-----------------------------------------------------------------|

E ------------------------------------------------------|
B ------------------------------------------------------|
G ------------------------------------------------------|
D ------12-12-12--14-14-14--12-12-12--14-14-14-12-10-9--|
A ------------------------------------------------------|
E-------------------------------------------------------|




E ------------------------------------------------------|
B ------------------------------------------------------|
G ------------------------------------------------------|
D ------12-12-12--14-14-14--12-12-12--14-14-14-12-10-9--|
A ------------------------------------------------------|
E-------------------------------------------------------|

E ----------------------------------------------------------------------------------|
B ----------------------------------------------------------------------------------|
G ----------------------------------------------------------------------------------|
D ---12-12-12--14-14-14--12-12-12--14-14-14-12-10-9-----7-7-7-7-7-7-7-7-7777-77777--|
A ----------------------------------------------------------------------------------|
E-----------------------------------------------------------------------------------|


 Verse 2

E --------------------------------------------------|
B --------------------------------------------------|
G --------------------------------------------------|
D -------------------------19-------------------12--|
A -------------------------------19----17-----------|
E---------------------------------------------------|

Repeat as many times as needed :
E --------------------------------------------------------------------|
B --------------------------------------------------------------------|
G --------------------------------------------------------------------|
D ------------14--------14--------14--------14------14--------14------|
A -------14--------14-------14--------14-------14--------14-------14--|
E --------------------------------------------------------------------|

Then :
E -----------------------------------------------------------|
B -----------------------------------------------------------|
G -----------------------------------------------------------|
D -----------------------------------------------------------|
A -------14-14-14-14-14-14-14-14---14-14-14-14---1414141414--|
E -----------------------------------------------------------|
Chorus (x2)


Repeat ‘till the end :
E ---------------------------------------------------------------------|
B ---------------------------------------------------------------------|
G ---------------------------------------------------------------------|
D ---------------------------------------------------------------------|
A -------12/17--19--15---12/17--19--15---12/17--19--15---12/17--19—15--|
E ---------------------------------------------------------------------|
Tap to rate this tab
 
# A B C D E F G H I J K L M N O P Q R S T U V W X Y Z