Song name
# A B C D E F G H I J K L M N O P Q R S T U V W X Y Z

Foamy Ed - Pollination tab

Foamy Ed - Pollination

Intro
e|---------------------|
b|---------------------|
g|-----------10--9--7--|
d|--7--5--7--10--9--7--|
a|--7--5--7---8--7--5--|
E|--5--3--5------------|

Verse/Chorus
e|--------------|
b|--------------|
g|--------------|
d|--7--5--3--5--|
a|--7--5--3--5--|
E|--5--3--1--3--|

Pre-chorus
e|---------|
b|---------|
g|--7--10--|
d|--7--10--|
a|--5---8--|
E|---------|

Solo
e|---------12--10--12--|--------|--------------|
b|---------------------|--------|--------------|
g|--9--10--------------|--------|--------------|
d|---------------------|--3--2--|--2--3--6--7--|
a|---------------------|--3--2--|--2--3--6--7--|
E|---------------------|--1--0--|--0--1--4--5--|

e|-------------------|
b|-------------------|
g|--7--10-----7--10--|
d|--7--10--7--7--10--|
a|--5---8--7--5---8--|
E|---------5---------|

Outro
e|------------|
b|------------|
g|--10--9--7--|
d|--10--9--7--|
a|---8--7--5--|
E|------------|
Tap to rate this tab
 
# A B C D E F G H I J K L M N O P Q R S T U V W X Y Z