Song name
# A B C D E F G H I J K L M N O P Q R S T U V W X Y Z

Fobia - Crusifijo tab

Help us improve GuitareTab! Take a short survey!
Este es el intro y el riff(1) que acompaa parte de la cancin

|------------------------------------------------------------------|
|------------------------------------------------------------------|
|--2--2--2-----3--3--2-----3--3--3----3--3--2----------------------|    x9
|-0--0--0--0h3--3---3-------------------------3--------------------|
|------------------------1--1--1-----------------------------------|
|-----------------------------------3--3---------------------------|


Despus se toca esto

|-------------------------------------------------------8------------|
|--------------------------------------------------5-7---------------|
|--3--4-5-7--5-4----------4-5-7---5-4-5-----4-5-7--------------------|   x2
|----------------5-5-5-5-----------------5---------------------------|
|--------------------------------------------------------------------|
|--------------------------------------------------------------------|


riff 1
|------------------------------------------------------------------|
|------------------------------------------------------------------|
|--2--2--2-----3--3--2-----3--3--3----3--3--2----------------------|    x11
|-0--0--0--0h3--3---3-------------------------3--------------------|
|------------------------1--1--1-----------------------------------|
|-----------------------------------3--3---------------------------|


Y es que hemos muerto de amor...
( 4 veces)
|---------------------------------------------------------------------|
|---------------------------------------------------------------------|
|--5---5--------3---3----2^3--2--0^2^0--------------------------------|
|----3----5-5-5---5---0-----------------3-2-0-2-3-0-3-----------------|
|---------------------------------------------------------------------|
|---------------------------------------------------------------------|


 solo final
|-----------3-5-6--8--6-5-3-------------------------------------------|
|-----6---6-----------------6---5--6h5--------------------------------|
|---5---6---------------------5--------5h3--3h2-0--2-2h3-5-5-3h5-5----|
|---------------------------------------------------------------------|
|---------------------------------------------------------------------|
|---------------------------------------------------------------------|

|---------------------------------------------------------------------|
|--5h6-5------3-------------------------------------------------------|
|---------5-2-------2h3-----------------------------------------------|
|-----------------0-0---0---------------------------------------------|
|----------------------------3-3--------------------------------------|
|---------------------------------------------------------------------|

|--13-13-13-15-15-15-15------|
|----------------------------|
|----------------------------|     x4
|----------------------------|
|----------------------------|
|----------------------------|

 Despues esto hasta acabar la cancion
|--5-5-5-6-6-6-5-5-5-6-6-6----------|
|--6-6-6-6-6-6-6-6-6-6-6-6----------|
|--5-5-5-5-5-5-5-5-5-5-5-5----------|
|-----------------------------------|
|-----------------------------------|
|-----------------------------------|


Lyrics:


Yo soy slo una piedra
clavada entre la tierra
soando con que escarves
y alguna vez me veas
no soy mas que la sobra
del polvo sobre el suelo
el ojo de la amiga
que se cerr de sueo
una y otra vez
sacame de entre la tierra
llevame hasta donde estes
donde nadie nos detenga

yo soy esa palabra
que tu jamas dijiste
que se queda ahorrada
que se qued tan triste
yo soy el crusifijo
al fondo de tu iglesia
al cual ya no visitas
al cual ya no le rezas
una y otra vez
sacame de entre la tierra
llevame hasta donde estes
donde nadie nos detenga

Es que hemos muerto de amor
pero el amor nunca muere.......

Es que hemos muerto de amor
pero el amor nunca muere.......

Nunca muere


Bueno esta rola es para ti RBK tu sabs por que espero q te guste. Y adems est muy 
y loka.
Eso es todo,Y spero q tambin les sirvan los lyrics
Cualquier duda o comentario escribanme a tonny_hk_necros@hotmail.com
Related for Crusifijo tab