Song name
# A B C D E F G H I J K L M N O P Q R S T U V W X Y Z

Focal Point - Inception tab

www.myspace.com/focalpoint

FOCAL POINT - INCEPTION

E|----------------------------------------------------|
B|-------0------------0------------0------------0-----|
G|-----4---4--------4---4--------4---4--------4---4---|    
D|---7-------7----7-------7----7------------7---------|              
A|-0------------0-------------------------------------|
D|---------------------------3---------3--5---------5-|

-----------------------------------------------

E|---------0----------------0-------|
B|-----------0----------------0-----|
G|-----4---------4------4---------4-|    
D|---7---7-----7------7---7-----7---|              
A|-0----------------3---------------|
D|----------------------------------|

E|---------0-----------------0-------|
B|-----------0-----------0-----------|
G|-----4---------4-------------7-----|    
D|---7---7-----7------7----7-----7---|              
A|-0----------------8--------------8-|
D|-----------------------------------|

-----------------------------------------------

E|----------------------------------------------------------|
B|--------0---------------0---------------0-----------------|
G|----0-----0---0-----0-----0----0-----0----0-------0--0----|    
D|--4---4-----4-----4---4-----4------4--------4---4------4--|              
A|2---------------3----------------0------------------------|
D|----------------------------------------------4----------4|

E|----------------------------------------|
B|----------------------------------------|
G|----------------------------------------|    
D|-----4-5-4----------4-5-4---------------|              
A|---1-------1------1-------1-------------|
D|-5-----------5--4-----------4-----------|

E|--------------------0--------------------|
B|--------------------5--------------------|
G|-------3---------------------------------|    
D|-----7---7--------7---7------------------|              
A|---5-------5----5-------5----------------|
D|-5------------8-----------8--------------|

E|--------------------0-------------------|
B|-----0----------0-----0-----------------|
G|----------------------------------------|    
D|---2---2------2---2-----2---------------|              
A|-0-------0--3-------------3-------------|
D|----------------------------------------|

E|----------------------------------------|
B|-------0--------------------------------|
g|-----2---2------------0-----------------|    
D|---2-------2--------3---3---------------|              
A|-0-----------0----3-------3-------------|
D|----------------3-----------3-----------|

THE END
Tap to rate this tab
# A B C D E F G H I J K L M N O P Q R S T U V W X Y Z