Song name
# A B C D E F G H I J K L M N O P Q R S T U V W X Y Z

Focus - Mother Focus tab

A song by Focus from the album Mother Focus. I noticed there are absolutely no tabs for 
on the internet so I thought why not upload them myself.

e|------------------------------0-------------------|
B|------7-7-7-7---7-7-7-7-7-7---0-------------------|
G|------7-7-7-7---6-6-6-6-6-6---1-------------------|
D|------7-7-7-7---7-7-7-7-7-7---2--------2h4--------|
A|------9-9-9-9---0-0-0-0-0-0---2----2h4-----2h4----|
E|--0---------------------------0----------------0--|

e|----------------------------0-------------------|
B|----7-7-7-7---7-7-7-7-7-7---0-------------------|
G|----7-7-7-7---6-6-6-6-6-6---1-------------------|
D|----7-7-7-7---7-7-7-7-7-7---2--------2h4--------|
A|----9-9-9-9---0-0-0-0-0-0---2----2h4-----2h4----|
E|----------------------------0----------------0--|


and that's it.
Tap to rate this tab
# A B C D E F G H I J K L M N O P Q R S T U V W X Y Z