Song name
# A B C D E F G H I J K L M N O P Q R S T U V W X Y Z

Focus - Sylvia tab

Focus - Sylvia
----------------

E|--13-13--12-12--10-10--11-11--8-8--6-6--6-6-------|
B|--13-13--13-13--12-12--11-11--9-9--8-8--6-6-------|
G|--14-14--12-12--12-12--12-12--8-8--8-8--7-7-------|
D|--------------------------------------------------|
A|--------------------------------------------------|
E|--------------------------------------------------|

E|--8p6p5-5-6p5-5--------------------------6r5----------------|
B|----------------8-6-6-5-6--5---5-6-----6-----8p6h8----------|
G|-----------------------------7-----7-5-------------5--------|
D|------------------------------------------------------------|
A|------------------------------------------------------------|
E|------------------------------------------------------------|

E|-8-6-5-----8-8p6p5h6p5-5-6-5--------------------|
B|-------8-6-------------------8-6-7-6-6-6--------|
G|------------------------------------------------|
D|------------------------------------------------|
A|------------------------------------------------|
E|------------------------------------------------|
Tap to rate this tab
# A B C D E F G H I J K L M N O P Q R S T U V W X Y Z