Song name
# A B C D E F G H I J K L M N O P Q R S T U V W X Y Z

Focus - Answers Questions Answers Questions tab

Help us improve GuitareTab! Take a short survey!
Artist:Focus
Song:Answers, Questions, Answers, Questions
tuning: EADGBE
Tabbed by: Aartisookniemis
i will try to tab the complete song. But it will take some time 

Part 1
|--------------------------------------------------------------------------|
|--------------------------------------------------------------------------|
|-----4--4-2------------4--4-2-------------7--7-5-------------7--7-5-------|
|1\2--4--4-2-5-4-3--1\2-4--4-2-5-4-3--4\5--7--7-5-8-7-6--4\5--7--7-5-8-7-6-|
|1\2--2--2-0-5-4-3--1\2-2--2-0-5-4-3--4\5--5--5-3-8-7-6--4\5--5--5-3-8-7-6-|
|1\2---------3-2-1--1\2--------3-2-1--4\5---------6-5-4--4\5---------6-5-4-| 2X
Part 2 Play Fast
|----------------------------------------------------------------------------|
|----------------------------------------------------------------------------|
|----------5-------------------5--------------------6------------------------|
|------5\7--7\5------------5\7--7\5-------------6\8--8\6---------------------|
|--5\7---------7\5-5----5\7---------7\5-5----6\8---------8\6-6---------------|
|--------------------7-------------------7---------------------8-------------|

|--------------------------------------------------------------------------|
|--------------------------------------------------------------------------|
|--------6-------------------7-----------------7---------------------------|
|-----6\8-8\6-------------7\9-9\7----------7\9--9\7------------------------|
|-6\8--------8\6-6-----7\9-------9\7----7\9--------9\7---------------------|
|------------------8------------------9-----------------9------------------|

Please Rate
Related for Answers Questions Answers Questions tab