Song name
# A B C D E F G H I J K L M N O P Q R S T U V W X Y Z

Foe - Frankenstein tab

Frankenstein by Foe
www.foe-mania.com

As always, listen to the song for exact timings etc.


Phrase 1
e|----------------------------------------|
G|------4---------4---------2--------4----|
B|----5---5-----5---5-----3---3----5---5--|
D|--6---------5---------3--------5--------|
A|----------------------------------------|
E|----------------------------------------|

Phrase 2
e|-----------------------------------------|
G|-----------------------------------------|
B|------3---------6---------3---------6----|
D|----3---3-----6---6-----3---3-----6---6--|
A|--4---------7---------4---------7--------|
E|-----------------------------------------|

Phrase 3
e|---------------------------------------------------------------------------|
G|------4---------4---------2--------2---------1--------1--------2--------2--|
B|----5---5-----5---5-----3---3----------------------------------------------|
D|--6---------5---------3----------3---3-----2---2----2---2----3---3----3----|
A|-------------------------------4---------3--------3--------4--------4------|
E|---------------------------------------------------------------------------|

Phrase 4
e|------4---------4----------8----------8------------------------------------|
G|---------------------------------------------------------------------------|
B|----5---5-----5---5------9---9------9--------0--------0--------0--------0--|
D|--6---------6---------10---------10--------3---3----3---3----2---2----2----|
A|-----------------------------------------4--------4--------3--------3------|
E|---------------------------------------------------------------------------|


Order:
Phrase 1 x6
Phrase 2
Phrase 1
Phrase 3 x2
Phrase 4 x2
e|-------------------|
G|------4---------4--|
B|----5---5-----5----|
D|--6---------6------|
A|-------------------|
E|-------------------|
Phrase 1 x2
Phrase 2
Phrase 1
Phrase 4 x2
Phrase 2 to end
Tap to rate this tab
# A B C D E F G H I J K L M N O P Q R S T U V W X Y Z